Oops, an error
Loading. Please wait.

Inside Of You Tab

version 2
version 2

Whole song

Interactive

16,074 views 3 this week
2 commentsread comments
1 2 3 4 5
excellent!
x 6
add to favorites
launch autoscroll
font size
0
reset
how to read this tab
guitar tuner
Tab Pro tools
  • play this tab
  • loop segment
  • change instrument
  • show fretboard
  • metronome
×
Best way to learn
"Inside Of You"
Autoscroll
slow
fast
+/-
esc
set tempo
stop
Contributor
Okay so I made this , by watching Jared's video of " how to play inside of you "
so i'm pretty sure it's  correct :)
Any questions ask !

Watch Video here (it helps a lot !)
http://www.youtube.com/watch?v=dx4ID11lTWo&feature=player_embedded#!

INTRO



I'm on a trip...

E--------------------------------|
B--------------------------------|
G---2---2---2---2---2---2---1---1|  [3x]
D-0---0---0---0---4---4---2---2--|
A--------------------------------|
E--------------------------------|
                                                   whole thing (x2)
E--------------------------------|
B--------------------------------|
G---2---2---2---2---4---4---4---4|
D-0---0---0---0---2---2---2---2--| (x1)
A--------------------------------|
E--------------------------------|



E------------------------|      E-------------------|
B------------------------|      B-------------------|
G------------------------|      G-------------------|
D-7------4-------2-------| [x3] D-7--------9--------|    Whole thing (x2)
A-5-(x8)-4-(x4)--2-(x4)--|      A-5-(x8)---7--(x8)--|
E-5------2-------0-------|      E-5--------7--------|


 (the number of strumming here is approximative...)

Oh -oh -oh...

E----------------------------------------------|
B---------------5------5------5----------------|
G-2------5------7------7------6-------1--------|
D-4------6------7------7------7-------2--------| (x2)
A-4-(x3)-6-(x3)-5-(x8)-5-(x3)-7-(x6)--2-(x10)--|
E-2------4------5------5------5-------0--------|

I now i'm gonna fall

E----------------------------------|
B----------------------------------|
G-7------6-------2-------1---------|
D-7------7-------4-------2---------| (x2) Let ring the E chord second time
A-5-(x6)-7-(x10)-4-(x6)--2-(x10)---|
E-5------5-------2-------0---------|



E------------------------|      E-------------------|
B------------------------|      B-------------------|
G------------------------|      G-------------------|
D-7------4-------2-------| [x3] D-7--------9--------|
A-5-(x8)-4-(x4)--2-(x4)--|      A-5-(x8)---7--(x8)--|
E-5------2-------0-------|      E-5--------7--------|

(watch carefully the video for that part ; (4:23)

So don't say that you wanna run away...

E-5-5-5-5-----------------5---------------------|
B-7-7-5-5--x-2-2-x-0-0----7-------2------0-x0x0-|
G-7-7-6-6--x-2-2-x-1-1----7-------2------1-x1x1-|
D-7-7-7-7--X-4-4-X-2-2----7-(x8)--4-(x4)-2-x2x2-|
A-5-5-7-7--x-4-4-x-2-2----5-------4------2-x2x2-|
E-5-5-5-5--x-2-2-x-0-0----5-------2------0-x0x0-|


E-5-5-5-5-----------------5---------------|
B-7-7-5-5--x-2-2-x-0-0----7-------9-------|
G-7-7-6-6--x-2-2-x-1-1----7-------9-------|
D-7-7-7-7--X-4-4-X-2-2----7-(x8)--9-(x8)--|
A-5-5-7-7--x-4-4-x-2-2----5-------7-------|
E-5-5-5-5--x-2-2-x-0-0----5-------7-------|




Same as last time



A mute strumming , then :


E-5-5-5-5--------------------|
B-5-5-5-5---0-0-0-0-0-0-0----|
G-7-7-6-6---2-2-1-1-2-2-1----| (x3)then strunming with the E
D-7-7-7-7---2-2-2-2-2-2-2----|
A-5-5-5-5---0-0-0-0-0-0-2----|
E-5-5-5-5---0-0-0-0-0-0-0----|


 (He does this in picking and do some mute rythm with it (I think ^^))

E-------------------------------------------------|
B-------------------------------------------------|
G--6----6----6----------------6----6----6---------|
D-7-7-7--7-7--7-9-9h11p9-7--7-7-7--7-7--7-6-4-2-2-|
A-------------------------------------------------|
E-------------------------------------------------|

G-6----6----6-------------------------------------|
D-7-7-7--7-7--7-9-9h11p9-7-7/6-4/2----------------|
A-------------------------------------------------|
E-------------------------------------------------|


E--------------------------------------------------------------------------|
B--------------------------------------------------------------------------|
G--------------------------------------------------------------------------|
D-11-11h14-11-11h14-11-11h14-11-9-7-7--11-11h14-11-11h14-11-11h14-11-9-9-9-|
A--------------------------------------------------------------------------|
E--------------------------------------------------------------------------|


E---------------------------------------------------|
B---------------------------------------------------|
G---------------------------------------------------|
D-11-11h14-11-11h14-11-11h14-11-9-7-7-7/6~~ --6/2~~-|
A---------------------------------------------------|
E---------------------------------------------------|
comments
print report bad tab
2 comments total.
0 reply
RainbowMuffy wrote on July 14 2010, 10:38 am

Awesome Tab. I learned it by ear but this is pretty accurate. The only correction/suggestion I have is the "I know I'm gonna fall". Instead of |2442xx| It's |x4422x|. So then it would look like this:

E----------------------------------|
B----------------2-----------------|
G-7------6-------2-------1---------|That's how I play it and
D-7------7-------4-------2---------|it sounds perfect.
A-5-(x6)-7-(x10)-4-(x6)--2-(x10)---|
E-5------5---------------0---------|

-1 reply
DrawdeNosfellot wrote on April 23 2012, 12:10 pm

For the very start bit

G---2---2---2---2---2---2---1---1| [3x]
D-0---0---0---0---4---4---2---2--|

I play that bit as, if you listen close enough you can hear that extra note which is added in

G---2---2---2---2---2---2---1--2--1| [3x]
D-0---0---0---0---4---4---2--------|

I want to post or [tab]
guest
You may want to rate the tab now too:
select rating
Please do not post tabs as comments. Select "correction" instead!