Oops, an error
Loading. Please wait.

Into Your Arms Tab

version 1
version 1

Acoustic

Whole song

Interactive

10,288 views 6 this week
2 commentsread comments
1 2 3 4 5
please rate
add to favorites
launch autoscroll
font size
0
reset
how to read this tab
guitar tuner
Autoscroll
slow
fast
+/-
esc
set tempo
stop
Help us to improve Ultimate-Guitar.com Take our survey!
×
Contributor
Difficulty
Capo
novice
3rd fret
Standard tuning
Capo 3rd

Intro
e|------------------------------------------------|
b|------------------------------------------------|
G|---11111111---22222222---6666---4444---22222222-| x2
D|---22222222---22222222---6666---4444---22222222-|
A|---22222222--------------4444---2222------------|
E|------------------------------------------------|


Verse
e|---xx-----xx-----xx-----xx---|
b|---xx-----xx-----xx-----xx---|
G|---xx-6---xx-2---xx-1---xx-4-|  x4
D|---xx-6---xx-2---xx-2---xx-4-|
A|---xx-4---xx-----xx-2---xx-2-|
E|---xx-----xx-----xx-----xx---|
The fourth time you play the verse, strum once on the last chord

e|-----------------------------|
b|-----------------------------|
G|---6666---2222---1111---4444-| x3
D|---6666---2222---2222---4444-|
A|---4444----------2222---2222-|
E|-----------------------------|

e|------------------------|
b|------------------------|
G|---22222222222222222222-|
D|---22222222222222222222-|
A|------------------------|
E|------------------------|

Chorus
e|------------------------------------------------|
b|------------------------------------------------|
G|---11111111---22222222---6666---4444---22222222-| x3
D|---22222222---22222222---6666---4444---22222222-|
A|---22222222--------------4444---2222------------|
E|------------------------------------------------|
Third time, strum once last chord.

Verse
e|---xx-----xx-----xx-----xx---|
b|---xx-----xx-----xx-----xx---|
G|---xx-6---xx-2---xx-1---xx-4-|  x2
D|---xx-6---xx-2---xx-2---xx-4-|
A|---xx-4---xx-----xx-2---xx-2-|
E|---xx-----xx-----xx-----xx---|
Second time, strum twice last chord

e|-----------------------------|
b|-----------------------------|
G|---6666---2222---1111---4444-| x1
D|---6666---2222---2222---4444-|
A|---4444----------2222---2222-|
E|-----------------------------|

e|------------------------|
b|------------------------|
G|---22222222222222222222-|
D|---22222222222222222222-|
A|------------------------|
E|------------------------|

Chorus
e|------------------------------------------------|
b|------------------------------------------------|
G|---11111111---22222222---6666---4444---22222222-| x3
D|---22222222---22222222---6666---4444---22222222-|
A|---22222222--------------4444---2222------------|
E|------------------------------------------------|

e|------------|
b|------------|
G|---44444444-|
D|---44444444-|
A|---22222222-|
E|------------|

Bridge
Mute with strum hand between each chord for bridge
e|------------------------|
b|------------------------|
G|---22---11---44444444---| x2
D|---22---22---44444444---|
A|--------22---22222222---|
E|------------------------|

e|---------------------|
b|---------------------|
G|---22---11---444/666-| x2
D|---22---22---444/666-|
A|--------22---222/444-|
E|---------------------|

e|------------------------|
b|------------------------|
G|---22---11---44444444---|
D|---22---22---44444444---|
A|--------22---22222222---|
E|------------------------|

Zeee ending.
e|-----------------------------------------|
b|-----------------------------------------|
G|---11111111---22222222---6666---4444---2-|
D|---22222222---22222222---6666---4444---2-|
A|---22222222--------------4444---2222-----|
E|-----------------------------------------|

e|------------------------------------------------|
b|------------------------------------------------|
G|---11111111---22222222---6666---4444---22222222-| x3
D|---22222222---22222222---6666---4444---22222222-|
A|---22222222--------------4444---2222------------|
E|------------------------------------------------|

e|-----------------------------------|
b|-----------------------------------|
G|---11111111---22222222---6---4---2-|
D|---22222222---22222222---6---4---2-|
A|---22222222---22222222---4---2-----|
E|-----------------------------------|


Hope you enjoyed. This probably isn't 100% accurate, but its the way i play it, and i 
it sounds pretty good. :)
Suggest correction What's this?
You can suggest a correction to this tab. Community and Mods will review your correction and vote to approve or reject it.
comments
We did not receive enough feedback on this tab! Please rate:
print report bad tab
1 2 3 4 5
2 comments total.
0 reply
bannedfrommusic 99 wrote on February 18 2010, 05:57 pm

Heeeey guys, since i'm new and i don't know how to work anything, i don't know how to edit my tab. Thus, i just want to inform you that for the bridge is supposed to be like this:

Bridge
Mute with strum hand between each chord for bridge
e|------------------------|
b|------------------------|
G|---22---11---44444444---| x2
D|---22---22---44444444---|
A|--------22---22222222---|
E|------------------------|

e|---------------------|
b|---------------------|
G|---22---11---444/666-|
D|---22---22---444/666-|
A|--------22---222/444-|
E|---------------------|

e|------------------------|
b|------------------------|
G|---22---11---44444444---|
D|---22---22---44444444---|
A|--------22---22222222---|
E|------------------------|

0 reply
rrfan1 66 wrote on March 5 2011, 08:10 pm

Very nice job.
It was a big help, thanks.

I want to post or [tab]
guest
You may want to rate the tab now too:
select rating
Please do not post tabs as comments. Select "correction" instead!