Oops, an error
Loading. Please wait.

Into Your Arms Tab

version 2
version 2

Acoustic

Whole song

Interactive

965 views 1 this week
no commentswrite comment
1 2 3 4 5
please rate
add to favorites
launch autoscroll
font size
0
reset
how to read this tab
guitar tuner
Autoscroll
slow
fast
+/-
esc
set tempo
stop
Help us to improve Ultimate-Guitar.com Take our survey!
×
Difficulty
Capo
intermediate
3rd fret
-------------------------------------------------------------------------------
                  Into Your Arms(Acoustic) - The Maine

-Go to the youtube video to pick up on the strumming
-I play pretty much every single mute note with my thumb (FYI)
-------------------------------------------------------------------------------
Tabbed by: Josh Miller
Email: x_jmiller_x@yahoo.com

Tuning: Standard (Capo on 3rd)


                           ---Intro----------------|
e|----0----|0----0----0----------------------------| Play intro only one
B|----0----|0----0----0----------------------------| time through
G|----1----|6----6----4----------------------------|
D|----2----|7----6----4----------------------------|
A|----2----|7----4----2----------------------------|
E|----x----|0----x----x----------------------------|


                            ---Verse---
     PM      PM      PM      PM
e|----0--0----0--0----0--0----0--0----------------| Play 4 times through
B|----0--0----0--0----0--0----0--0----------------|
G|----6--6----2--2----1--1----4--4----------------|
D|----6--6----2--2----2--2----4--4----------------|
A|----4--4----0--0----2--2----2--2----------------|
E|----x--x----x--x----x--x----x--x----------------|

                     3rd time through 5th chord
                              |
                              v
e|---0----0----0----0------:-0-:----------------------------------------| Than play the exact same
B|---0----0----0----0------:-0-:----------------------------------------| thing but without the PM
G|---6----2----1----4------:-2-:----------------------------------------| and play 3 times through
D|---6----2----2----4------:-2-:----------------- but than a with a 5th-|
A|---4----0----2----2------:-0-:----------------------------------------| chord at the end of the
E|---x----x----x----x------:-x-:----------------------------------------| third time through



                          ---Chorus----------------|
e|----0----|0----0----0----0-----------------------| Play three times through
B|----0----|0----0----0----0-----------------------|
G|----1----|6----6----4----2-----------------------|
D|----2----|7----6----4----2-----------------------|
A|----2----|7----4----2----0-----------------------|
E|----x----|0----x----x----x-----------------------|


                             ---Verse---
     PM      PM      PM      PM
e|----0--0----0--0----0--0----0--0----------------| Play 2 times through
B|----0--0----0--0----0--0----0--0----------------|
G|----6--6----2--2----1--1----4--4----------------|
D|----6--6----2--2----2--2----4--4----------------|
A|----4--4----0--0----2--2----2--2----------------|
E|----x--x----x--x----x--x----x--x----------------|

e|----0----0----0----0----0-----------------------| Last time through for
B|----0----0----0----0----0-----------------------| this verse
G|----6----2----1----4----2-----------------------|
D|----6----2----2----4----2-----------------------|
A|----4----0----2----2----0-----------------------|
E|----x----x----x----x----x-----------------------|



                        ---Chorus------------------|
e|----0----|0----0----0----0-----------------------| Play 2 times through
B|----0----|0----0----0----0-----------------------|
G|----1----|6----6----4----2-----------------------|
D|----2----|7----6----4----2-----------------------|
A|----2----|7----4----2----0-----------------------|
E|----x----|0----x----x----x-----------------------|

e|----0----0----0----0----0----0------------------| than play this once
B|----0----0----0----0----0----0------------------| through
G|----1----2----6----4----2----4------------------|
D|----2----2----6----4----2----4------------------|
A|----2----0----4----2----0----2------------------|
E|----x----x----x----x----x----x------------------|



                            ---Bridge--------------------------------|
e|----0-x--0-x--0----0-x--0-x--0----0-x--0-x--0\0----0-x--0-x--0-----|only
B|----0-x--0-x--0----0-x--0-x--0----0-x--0-x--0\0----0-x--0-x--0-----|one
G|----2-x--1-x--4----2-x--1-x--4----2-x--1-x--4\6----2-x--1-x--4-----|time
D|----2-x--2-x--4----2-x--2-x--4----2-x--2-x--4\6----2-x--2-x--4-----|through
A|----0-x--2-x--2----0-x--2-x--2----0-x--2-x--2\4----0-x--2-x--2-----|
E|----x-x--x-x--x----x-x--x-x--x----x-x--x-x--x\x----x-x--x-x--x-----|


                         ---Chorus-----------------|
e|----0----|0----0----0----0-----------------------| Play 4 times through
B|----0----|0----0----0----0-----------------------|
G|----1----|6----6----4----2-----------------------|
D|----2----|7----6----4----2-----------------------|
A|----2----|7----4----2----0-----------------------|
E|----x----|0----x----x----x-----------------------|


THAN ITS THE END :)
Hope this tap works out for all you guys!!!
just go to the youtube video to get it down thats what i did
http://www.youtube.com/watch?v=XpJppP9_vZw


************************************
 \   slide down
PM   Palm Mute
 |   Barred
 x   Mute note

************************************
Suggest correction
What's this?
You can suggest a correction to this tab. Community and Mods will review your correction and vote to approve or reject it.
comments
We did not receive enough feedback on this tab! Please rate:
print report bad tab
1 2 3 4 5
guest
You may want to rate the tab now too:
select rating
Please do not post tabs as comments. Select "correction" instead!