Oops, an error
Loading. Please wait.

Into Your Arms Bass Tab

version 1
version 1

Whole song

Interactive

17,410 views 1 this week
no commentswrite comment
1 2 3 4 5
excellent!
x 3
add to favorites
launch autoscroll
font size
0
reset
guitar tuner
Autoscroll
slow
fast
+/-
esc
set tempo
stop
Help us to improve Ultimate-Guitar.com Take our survey!
×
-------------------------------------------------------------------------------
			     Into Your Arms - The Maine
-------------------------------------------------------------------------------

Tabbed By : RyMal12
e-mail: 

Tuning: Standard

Intro  (0:05-0:26)
G|----------------------------------------------------|
D|----------------------------------------------------| x2
A|---------------33333333--7777--5555--33333333-------|
E|-----33333333---------------------------------------|

Verse  (0:37-1:04)
G|------------------------------------|
D|------------------------------------| x5
A|-----7777--3333--------5555---------|
E|-----------------3333---------------|

Pre-chorus
G|--------------------------|
D|--------------------------|
A|----3333333333333333------|
E|--------------------------|

Chorus x3                                         last time
G|------------------------------------------------|-----|
D|------------------------------------------------|-----|
A|---------------33333333--7777--5555-33333333----|-3~--|
E|-----33333333-----------------------------------|-----|

Verse x3
Pre-Chorus
Chorus x3

Play this 3rd time
G|------------------------------------------------------------|
D|------------------------------------------------------------|
A|---------------33333333--7777--5555-33333333--555577/12\----|
E|-----33333333-----------------------------------------------|

Bridge
G|---------------------------------------------------------------------------------|
D|---------------------------------------------------------------------------------|
A|----33--------55-5-5---33--------55-5-5---33--------55-7~---33--------55-5-5-----|
E|---------33-----------------33-----------------33----------------33----------3~--|

Chorus x4
Play this 4th time
G|--------------------------------------|
D|--------------------------------------|
A|-------------33333333--7~--5~--3~-----|
E|---33333333---------------------------|






| /  slide up
| \  slide down
| h  hammer-on
| p  pull-off
| ~  vibrato
| +  harmonic
| x  Mute note
===============================================================================
Suggest correction
Give kudos to tab author, rate the tab!
1 2 3 4 5
comments
print report bad tab
guest
You may want to rate the tab now too:
select rating
Wanna post a correction for this tab? Suggest correction