Oops, an error
Loading. Please wait.

Into Your Arms Tab

version 1
version 1

Whole song

Interactive

122,745 views 33 this week
7 commentsread comments
1 2 3 4 5
x 25
add to favorites
launch autoscroll
font size
0
reset
how to read this tab
guitar tuner
Autoscroll
slow
fast
+/-
esc
set tempo
stop
Help us to improve Ultimate-Guitar.com Take our survey!
×
Author
Difficulty
Capo
novice
3rd fret
Artist: The Maine
Song: Into Your Arms
Guitar 1: CAPO 3rd Fret, standard tuning.
Guitar 2: Standard tuning, no CAPO.

This song is pretty much the most fun to play since i've started playing guitar. It's 
easy, it shouldn't take you long to learn it! :D
Questions? Email me at taylorrlovesparamore@yahoo.com

Intro Pt. 1 [Guitar 1]

e|-------------|
b|-------------|  You'll repeat this progression twice for the first part of
G|---111---222-|  the intro.
D|---222---222-|
A|---222-------|
E|-------------|


Intro Pt. 1 [Guitar 2]

e|---------------------------------------------------------------------|
b|---10h12-12-12-12-12-12p10-10-10-10-10-10h12-12-12-12-12-12p10-10-10-|
G|---------------------------------------------------------------------|
D|---------------------------------------------------------------------|
A|---------------------------------------------------------------------|
E|---------------------------------------------------------------------|


Intro Pt. 2 [Guitar 1]

e|----------------------------|
b|----------------------------|
G|---6666---4444---22222222---|
D|---6666---4444---22222222---|
A|---4444---2222--------------|
E|----------------------------|


Intro Pt. 2 [Guitar 2]

e|------------------------------------------------------------------------|
b|-10h12-12-12-12-12-12h15-15-15-15-15-15p13-13-13-13-13-13p12-12-12p10-10|
G|------------------------------------------------------------------------|
D|------------------------------------------------------------------------|
A|------------------------------------------------------------------------|
E|------------------------------------------------------------------------|

Repeat intro twice.

Verse
[Guitar 1]

e|--xx-----xx-----xx-----xx-----|
b|--xx-----xx-----xx-----xx-----|
G|--xx-6---xx-2---xx-1---xx-4---|  X4
D|--xx-6---xx-2---xx-2---xx-4---|
A|--xx-4---xx-----xx-2---xx-2---|
E|--xx-----xx-----xx-----xx-----|

Play this progression 4 times. On the fourth time, when John sings 'smile,' just hit one 
strum. After the fourth time, you play the progression without any 'chucks.' Just the strumming.

Verse
[Guitar 2]

Right before 'I'll state something rash,' and 'she had the most amazing... smile.'

e|----------|
b|----------|
G|---12-12--|
D|----------|
A|----------|
E|----------|

Start this before 'I bet you didn't expect that.'

e|--------------------------------------|
b|--------------------------------------|
G|---7--7----5---5----7---7----2---2----|
D|-----5--5----5---5----5---5----5---5--|  X3
A|--------------------------------------|
E|--------------------------------------|


[Guitar 1]
When he sings 'and legs that went on for days,' you play:

e|-------|
b|-------|
G|---2---| 16 downstrums, which is the refrain.
D|---2---|
A|-------|
E|-------|

[Guitar 2]

e|-----------------|
b|-----------------|
G|-----------------|
D|-----------------|
A|-----------------|
E|-----------------|


Chorus
[Guitar 1]

e|--------------------------------------------------|
b|--------------------------------------------------|
G|---11111111---22222222---6666---4444---22222222---| X2
D|---22222222---22222222---6666---4444---22222222---|
A|---22222222--------------4444---2222--------------|
E|--------------------------------------------------|

('Into you arms, into your arms).
[Guitar 1]

e|-------------|
b|-------------|
G|---111---222-|
D|---222---222-| X2
A|---222-------|
E|-------------|

e|---------------------|
b|---------------------|
G|---6666---4444---2---|
D|---6666---4444---2---|
A|---4444---2222-------|
E|---------------------|

Chorus
[Guitar 2]

e|---7---7----10---10----|
b|-----8----8----8----8--|
G|-----------------------|
D|-----------------------|
A|-----------------------|
E|-----------------------|


Chorus ('Into your arms, into your arms').
[Guitar 2]

e|---------------------------------------------------------------------|
b|---10h12-12-12-12-12-12p10-10-10-10-10-10h12-12-12-12-12-12p10-10-10-|
G|---------------------------------------------------------------------|
D|---------------------------------------------------------------------|
A|---------------------------------------------------------------------|
E|---------------------------------------------------------------------|

e|------------------------------------------|
b|-10h12-12-12-12-12-12h15-15-15-15-15-15p13|
G|------------------------------------------|
D|------------------------------------------|
A|------------------------------------------|
E|------------------------------------------|

On the verse for Guitar 1, when John sings 'but she seemed so far,' on the 'seemed so' 
you strum 2 down strums to accent both words. Other than that, it's the same as the first verse.

Verse 2
[Guitar 2]

Before 'She made her way to the bar,' and 'I tried to talk to her,'

e|----------|
b|----------|
G|---12-12--|
D|----------|
A|----------|
E|----------|

Before 'Out of my league,'

e|--------------------------------------|
b|--------------------------------------|
G|---7--7----5---5----7---7----2---2----|
D|-----5--5----5---5----5---5----5---5--| X1
A|--------------------------------------|
E|--------------------------------------|

[Guitar 1]
Play the refrain. And then the chorus again.
At the end of the chorus, this is the refrain before the bridge:

e|--------------|
b|--------------|
G|---44444444---|
D|---44444444---|
A|---22222222---|
E|--------------|

Refrain before bridge
[Guitar 2]

e|------------------------------|
b|------------------------------|
G|---10-10-10-10-10-10-10-10----|
D|------------------------------|
A|------------------------------|
E|------------------------------|


Bridge
[Guitar 1]

e|------------------------|
b|------------------------|
G|---22---11---44444444---| X2
D|---22---22---44444444---|
A|--------22---22222222---|
E|------------------------|

With the last chord, there is some mixed muted and regular strumming, it's kinda hard to 
so do with that what you can. hahah

On the third time you play the bridge progression:

e|------------------------|
b|------------------------|
G|---22---11---444/6666---|
D|---22---22---444/6666---|
A|--------22---222/4444---|
E|------------------------|

And then play the regular prog. once more.

Bridge
[Guitar 2]

After 'Oh she's slippin' away,'

e|------------------------|
b|---12-10-10-10-888888---|
G|------------------------|
D|------------------------|
A|------------------------|
E|------------------------|

After 'I always freeze when I'm thinking of words to say,'

e|-------------------------------------------|
b|---888/1010101010/8888---------------------|
G|-------------------------------------------|
D|-------------------------------------------|
A|-------------------------------------------|
E|-------------------------------------------|

During 'Make it seem like love,'

e|-------------------------------------------|
b|---12-10-8/10/15---------------------------|
G|-------------------------------------------|
D|-------------------------------------------|
A|-------------------------------------------|
E|-------------------------------------------|

During 'I like the way that we play.'

e|-------------------------------------------|
b|---12-12-15-15-12-10-8---------------------|
G|-------------------------------------------|
D|-------------------------------------------|
A|-------------------------------------------|
E|-------------------------------------------|


Last chorus:
[Guitar 1]

e|-------------------------------------------|
b|-------------------------------------------|
G|---11111111---22222222---6666---4444---2---|
D|---22222222---22222222---6666---4444---2---| X1
A|---22222222--------------4444---2222-------|
E|-------------------------------------------|


e|--------------------------------------------------|
b|--------------------------------------------------|
G|---11111111---22222222---6666---4444---22222222---| X2
D|---22222222---22222222---6666---4444---22222222---|
A|---22222222--------------4444---2222--------------|
E|--------------------------------------------------|


('Into your arms, into your arms'). Repeat the 2nd part of the chorus twice.

e|-------------|
b|-------------|
G|---111---222-| X2
D|---222---222-|
A|---222-------|
E|-------------|

e|----------------------------|
b|----------------------------|
G|---6666---4444---22222222---|
D|---6666---4444---22222222---| X1
A|---4444---2222--------------|
E|----------------------------|

On the last 'Into your arms' part, you do 3 strums.

e|---------------|
b|---------------|
G|---6---4---2---| Let the last chord ring.
D|---6---4---2---|
A|---4---2-------|
E|---------------|

Last chorus:
[Guitar 2]

e|---7---7----10---10----|
b|-----8----8----8----8--|
G|-----------------------| X11
D|-----------------------|
A|-----------------------|
E|-----------------------|

'Into your arms, into your arms.'

e|------------------------------------------------------------------------|
b|-10h12-12-12-12-12-12h15-15-15-15-15-15p13-13-13-13-13-13p12-12-12p10-10|
G|------------------------------------------------------------------------|
D|------------------------------------------------------------------------|
A|------------------------------------------------------------------------|
E|------------------------------------------------------------------------|

e|------------------------------------------|
b|-10h12-12-12-12-12-12h15-15-15-15-15-15p13|
G|------------------------------------------|
D|------------------------------------------|
A|------------------------------------------|
E|------------------------------------------|

Well that's it! I think its about 98% correct... if you have ANY corrections please let 
know. It would be appreciated :D
Suggest correction
comments
print report bad tab
7 comments total. Showing first comments.
+1 reply
epiphreak 72 Oct 30, 2009 04:30 PM

great tab :D five stars.

0 reply
TaylorOhhh 71 Dec 25, 2009 02:00 PM

thank you :)

0 reply
JasonJC 10 Aug 09, 2010 10:19 PM

thanks for guitar 2 I needed that [:

guest
You may want to rate the tab now too:
select rating
Wanna post a correction for this tab? Suggest correction