Oops, an error
Loading. Please wait.

Into Your Arms Tab

version 2
version 2

Whole song

Interactive

20,512 views 1 this week
no commentswrite comment
1 2 3 4 5
1 last vote to show rating
add to favorites
launch autoscroll
font size
0
reset
how to read this tab
guitar tuner
Autoscroll
slow
fast
+/-
esc
set tempo
stop
Help us to improve Ultimate-Guitar.com Take our survey!
×
Capo
3rd fret
Tabbed by Erica.

The other tabs I find on this song don't quite seem to be very accurate, so I'm 
the tab I figured out for this song.

I hope this helps.

CAPO ON 3
STANDARD TUNING
(The tab numbers will accompany the song representing the capo as the nut. So if you see 
number "1", it will be 1 fret fron the capo, not 1 fret from the nut.)

. = palm muted


Intro:
e--4---4---7---7------4---4---7---7--|
B----5---5---5---5------5---5---5---5|
G------------------------------------|
D------------------------------------|
A------------------------------------|
E------------------------------------|


e---0----0----------|
B---0----0----------|
G---1----2----------|
D---2----2----------|  x4
A---2----0----------|
E---0----0----------|

Verse:

part1
e--0--0--0--0---0--0--0--0---0--0--0--0---0--0--0--0--------|
B--0--0--0--0---0--0--0--0---0--0--0--0---0--0--0--0--------|
G--1--1--1--1---2--2--2--2---6--6--6--6---2--2--2--2--------|
D--2--2--2--2---2--2--2--2---6--6--6--6---2--2--2--2--------|
A--2--2--2--2---0--0--0--0---4--4--4--4---0--0--0--0--------|
E--0--0--0--0---0--0--0--0---x--x--x--x---0--0--0--0--------|
   .  .     .   .  .     .   .  .     .   .     .  .

part2
e--0--0--0--0---0--0--0--0---0--0--0--0---0--0--0--0--------|
B--0--0--0--0---0--0--0--0---0--0--0--0---0--0--0--0--------|
G--1--1--1--1---2--2--2--2---6--6--6--6---2--2--2--2--------|
D--2--2--2--2---2--2--2--2---6--6--6--6---2--2--2--2--------|
A--2--2--2--2---0--0--0--0---4--4--4--4---0--0--0--0--------|
E--0--0--0--0---0--0--0--0---x--x--x--x---0--0--0--0--------|

part3
e--0--0--0--0--0--0--0--0----0--0--0--0--0--0--0--0--|
B--0--0--0--0--0--0--0--0----0--0--0--0--0--0--0--0--|
G--1--1--1--1--1--1--1--1----2--2--2--2--2--2--2--2--|
D--2--2--2--2--2--2--2--2----2--2--2--2--2--2--2--2--|
A--2--2--2--2--2--2--2--2----0--0--0--0--0--0--0--0--|
E--0--0--0--0--0--0--0--0----0--0--0--0--0--0--0--0--|

Chorus:
e---0----0----------|
B---0----0----------|
G---1----2----------|
D---2----2----------|  x6
A---2----0----------|
E---0----0----------|


[Play Verse 2; same as Verse 1]

[Play Chorus]


Bridge:
e--0--0--x--0--0--x--0--0--x--0--0--x--|
B--0--0--x--0--0--x--0--0--x--0--0--x--|
G--2--2--x--1--1--x--4--4--x--6--6--x--|
D--2--2--x--2--2--x--4--4--x--6--6--x--|  x4
A--0--0--x--2--2--x--2--2--x--4--4--x--|
E--0--0--x--0--0--x--x--x--x--x--x--x--|

[Play Chorus until end]


HOPE THIS TAB HELPED.
Suggest correction
Give kudos to tab author, rate the tab!
1 2 3 4 5
comments
print report bad tab
guest
You may want to rate the tab now too:
select rating
Wanna post a correction for this tab? Suggest correction