Oops, an error
Loading. Please wait.

Into Your Arms Tab

version 3
version 3

Intro

Whole song

Interactive

7,060 views 6 this week
4 commentsread comments
1 2 3 4 5
worth learning
x 2
add to favorites
launch autoscroll
font size
0
reset
how to read this tab
guitar tuner
Tab Pro tools
  • play this tab
  • loop segment
  • change instrument
  • show fretboard
  • metronome
×
Best way to learn
"Into Your Arms"
Autoscroll
slow
fast
+/-
esc
set tempo
stop
Contributor
----------------------------------------------------------------------------
                            Into Your Arms- The Maine
----------------------------------------------------------------------------
Tabbed by: Alli Blackerby
Email: ablackerby@bellsouth.net

Tuning: Standard

Intro: whole thing x2
e|-------------------------------------------------------------------------|
B|--11-12-12-12-12-12-12-12-11-11-11-11------x2----------------------------|
G|------------------------------------12-----------------------------------|
D|-------------------------------------------------------------------------|
A|-------------------------------------------------------------------------|
E|-------------------------------------------------------------------------|

e|--------------------10-10-10-10-10-10-------------------------------------|
B|--11-12-12-12-12-12-------------------13-13-13-13-13-13-13-12-12-12-12-10-|
G|--------------------------------------------------------------------------|
D|--------------------------------------------------------------------------|
A|--------------------------------------------------------------------------|
E|--------------------------------------------------------------------------|

Verse: 
palm mute the first two times you strum each of these chords
There was a new girl in town...
e|--3-3-3-3-3---3-3-3-3-3---3-3-3-3-3---3-3-3-3-3------------------------|
B|--3-3-3-3-3---3-3-3-3-3---3-3-3-3-3---2-2-2-2-2------------------------|
G|--0-0-0-0-0---0-0-0-0-0---0-0-0-0-0---3-3-3-3-3------------------------|
D|--2-2-2-2-2---2-2-2-2-2---0-0-0-0-0---0-0-0-0-0------------------------|x4
A|--2-2-2-2-2---3-3-3-3-3---2-2-2-2-2------------------------------------|
E|--------------------------3-3-3-3-3------------------------------------|
         
I bet you didn't expect that...
e|--3---3---3---3--------3-----------------------------------------------|
B|--3---3---3---2--------3-----------------------------------------------|
G|--0---0---0---3---x3---0-----------------------------------------------|
D|--2---2---0---0--------2-----------------------------------------------|
A|--2---3---2------------3-----------------------------------------------|
E|----------3------------------------------------------------------------|

Chorus:
strumming here is a little irregular time wise. I'll try to make it a little clearer
e|-----|-3-|-3-|-3-3-|-3-|--------------------------------------------------|
B|-----|-3-|-3-|-3-2-|-3-|--------------------------------------------------|
G|-----|-0-|-0-|-0-3-|-0-|--------------------------------------------------|
D|-----|-0-|-2-|-2-0-|-2-|--------------------------------------------------|
A|-----|-2-|-3-|-2---|-3-|--------------------------------------------------|
E|-----|-3-|---|-----|---|--------------------------------------------------|


Intro x1

Verse part one x2

Verse part two x1

Chorus

Intro x1

Bridge- Palm mute first two times strummed
e|--3--3--3--3----------------------------------------------------------|
B|--3--3--2--3----------------------------------------------------------|
G|--0--0--3--0----------------------------------------------------------|
D|--2--0--0--2----------------------------------------------------------| x4
A|--3--2-----2----------------------------------------------------------|
E|-----3----------------------------------------------------------------|


Chorus

Intro x2





| /  slide up
| \  slide down
| h  hammer-on
| p  pull-off
| ~  vibrato
| +  harmonic
| x  Mute note
===============================================================================
comments
We did not receive enough feedback on this tab! Please rate:
print report bad tab
1 2 3 4 5
4 comments total. Showing first comments.
0 reply
soup51 wrote on July 23 2009, 10:43 pm

perfect dude! best tab i've found for this song! sounds dead on! good job!

0 reply
clickypen25 wrote on October 20 2009, 09:11 pm

hey nice job but im pretty sure your A#'s need to be A naturals in the intro

0 reply
epiphreak wrote on October 30 2009, 04:23 pm

yeah.. the intro is wrong. and there is a lot of lead guitar left out of this tab.

I want to post or [tab]
guest
You may want to rate the tab now too:
select rating
Please do not post tabs as comments. Select "correction" instead!