Oops, an error
Loading. Please wait.

Kennedy Curse Tab

3,740 views 3 this week
1 commentread comment
1 2 3 4 5
x 7
add to favorites
launch autoscroll
font size
0
reset
how to read this tab
guitar tuner
Autoscroll
slow
fast
+/-
esc
set tempo
stop
Help us to improve Ultimate-Guitar.com Take our survey!
×
Author
Difficulty
novice
From their new album Forever Halloween (:

in the song they're alternating the patters starting with the first one then the second 
one, you do that 9 times.

Intro/Verse:

e|----------------------------------------------|
B|----------------------------------------------|
G|-----0------0--------0-----0------------------|
D|-2-2---2--4---4-0--7----7----7/9/12-----------|
A|----------------------------------------------|
E|----------------------------------------------|

e|----------------------------------------------|
B|----------------------------------------------|
G|-----0------0--------0-----0-----0------0-----|
D|-2-2---2--4---4-0--7----7-----7-----7---------|
A|----------------------------------------------|
E|----------------------------------------------|

Heres the lead part starting at 0:31, you repeat this about 12 times

e|---7--5h7p5---3-----3----5----7---------------|
B|-5----5-------5---5----5----5----5------------|
G|----------------------------------------------|
D|----------------------------------------------|
A|----------------------------------------------|
E|----------------------------------------------|

This is the part where everything builds up, it part isnt 100% correct but its in a similar key.
It starts at 1:33, then you repeat it at about 1:41 and 1:54

e|--------------------------------------------|
B|---12-10--8--7--8--7------------------------|
G|---------------------9--11--9--7------------|
D|--------------------------------------------|
A|--------------------------------------------|
E|--------------------------------------------|

Solo at 2:05, `play this twice.

e|----------------------------------------------|
B|---b12--b12--b12--10--------------------------|
G|-----------------------11-11-b11---9--9h11h12-|
D|----------------------------------------------|
A|----------------------------------------------|
E|----------------------------------------------|

Do the verse again for the bridge, repeat four times starting at about 2:15

e|---7--5h7p5---3-----3----5----7---------------|
B|-5----5-------5---5----5----5----5------------|
G|----------------------------------------------|
D|----------------------------------------------|
A|----------------------------------------------|
E|----------------------------------------------|

repeat chorus at 2:37, 2:44, 2:57

e|--------------------------------------------|
B|---12-10--8--7--8--7------------------------|
G|---------------------9--11--9--7------------|
D|--------------------------------------------|
A|--------------------------------------------|
E|--------------------------------------------|

repeat the lead at 3:07 5 times until the song fades out.

e|---7--5h7p5---3-----3----5----7---------------|
B|-5----5-------5---5----5----5----5------------|
G|----------------------------------------------|
D|----------------------------------------------|
A|----------------------------------------------|
E|----------------------------------------------|
Suggest correction
comments
print report bad tab
1 comment total.
+1 reply
Josh_9513 10 Apr 23, 2014 07:16 PM

This sounds a little better to me for the intro

e|----------------------------------------------|
B|----------------------------------------------|
G|-----0------0---0---0----0--------------------|
D|-2-2---2--4---0---7----7----7/9/12------------|
A|----------------------------------------------|
E|----------------------------------------------|

e|----------------------------------------------|
B|----------------------------------------------|
G|-----0------0---0---0----0-----0-----0--------|
D|-2-2---2--4---0---7----7-----7-----7----------|
A|----------------------------------------------|
E|----------------------------------------------|

guest
You may want to rate the tab now too:
select rating
Wanna post a correction for this tab? Suggest correction