Oops, an error
Loading. Please wait.

Listen To Your Heart Tab

5,012 views 9 this week
2 commentsread comments
1 2 3 4 5
excellent!
x 3
add to favorites
launch autoscroll
font size
0
reset
how to read this tab
guitar tuner
Autoscroll
slow
fast
+/-
esc
set tempo
stop
Help us to improve Ultimate-Guitar.com Take our survey!
×
Author
Artist: The Maine
Song: Listen To Your Heart
Album: Black & White
Tabbed by: gustavoaraujo999@hotmail.com

**Higher part of solo is wrong, but I couldnt fit anything better in there.
If someone has it right, please speak up.

[Intro]
e|---------|
B|---------|
G|-8888888-|
D|-8888888-|
A|-6666666-|
E|---------|

[Verse 1]
e|------------------------------------------|
B|------------------------------------------|
G|-8888888-777777---------------------------|
D|-8888888-777777-6666666-8888888-(10)-[x2]-|
A|-6666666-555555-6666666-8888888-(10)------|
E|----------------4444444-6666666-(8-)------|

[Pre-chorus]
e|---------------------|
B|---------------------|
G|---------------------|
D|-6~---8-8----xx-xx---|
A|-6~---8-8----xx-xx---|
E|-4~---6-6----xx-xx---|
 
[Chorus 1]
e|-----------------------------|------|---------------------------|
B|-----------------------------|------|---------------------------|
G|-888888----------------------|------|---------------------------|
D|-888888-888888-666666-888888-|-[x2]-|-6666666-8~----------------|
A|-666666-888888-666666-888888-|------|-6666666-8~----------------|
E|--------666666-444444-666666-|------|-4444444-6~----------------|

[Verse 2]
e|-------------------------------------|
B|-------------------------------------|
G|-8888888-777777----------------------|
D|-8888888-777777-6666666-8888888-[x2]-|
A|-6666666-555555-6666666-8888888------|
E|----------------4444444-6666666------|

(this is not an actual part of the song, but I saw a guy play it and thought it sounded cool)
e|-------------------------------------------------------------------|
B|-------------------------------------------------------------------|
G|-8-8-8-8-8-8--10-7-7-7-7-7-7--13-13-13-13-13-13--15-15-15-15-15-15-|
D|-x-x-x-x-x-x--x--x-x-x-x-x-x--x--x--x--x--x--x---x--x--x--x--x--x--|
A|-6-6-6-6-6-6--8--5-5-5-5-5-5--11-11-11-11-11-11--13-13-13-13-13-13-|
E|-------------------------------------------------------------------|
 
[Chorus 2]
e|-----------------------------|------|----------------|
B|-----------------------------|------|----------------|
G|-888888----------------------|------|----------------|
D|-888888-888888-666666-888888-|-[x2]-|-6666666-888888-|
A|-666666-888888-666666-888888-|------|-6666666-888888-|
E|--------666666-444444-666666-|------|-4444444-666666-|
 
e|----------------------------------|
B|----------------------------------|
G|-888888---------------------------|
D|-888888-888888-666666-888888-[x2]-|
A|-666666-888888-666666-888888------|
E|--------666666-444444-666666------|
 
[Bridge]
e|-----------------------------------------------------------------|
B|-----------------------------------------------------------------|
G|--------------------8888-7777------------------------------------|
D|-66666666-88888888--8888-8888-666666666-8888888------------------|
A|-66666666-88888888--6666-5555-666666666-8888888------------------|
E|-44444444-66666666------------444444444-6666666------------------|

[Solo]
Lead:
e|------------------------------------------------------------------|
B|-16-----16--------------------------------------------------------|
G|-15-----15--------------------------------------------------------|
D|----15^----15^-------8-10-----------------------------------------|
A|----------------8-10------10-8--6--5-6-8-10--8-10-13--------------|
E|------------------------------------------------------------------|

e|-----------------------------------16-15----------------------------------|
B|-16-----16-------------------------------16-------------------------------|
G|-15-----15------------12-15-----------------15---12-13-12-----------------|
D|----15^----15^--13-15-------15-13-------------------------15-13--12/13-13-|
A|--------------------------------------------------------------------------|
E|--------------------------------------------------------------------------|

Rhythm:
e|----------------------------------|
B|----------------------------------|
G|-888888---------------------------|
D|-888888-888888-666666-888888-[x2]-|
A|-666666-888888-666666-888888------|
E|--------666666-444444-666666------|

e|--------------------------|
B|--------------------------|
G|-8~~----------------------|
D|-8~~----------8-8-8-8-8-8-|
A|-6~~----------8-8-8-8-8-8-|
E|--------------6-6-6-6-6-6-|
                . . . . .

[Outro Chorus]
Rhythm:
e|-----------------------------|----------------------------------|
B|-----------------------------|----------------------------------|
G|-888888----------------------|-888888---------------------------|
D|-888888-888888-666666-888888-|-888888-888888-666666-8888888888--|
A|-666666-888888-666666-888888-|-666666-888888-666666-8888888888--|
E|--------666666-444444-666666-|--------666666-444444-6666666666--|

e|----------------------------------|-----|
B|----------------------------------|-----|
G|-888888---------------------------|-8~~-|
D|-888888-888888-666666-888888-[x2]-|-8~~-|
A|-666666-888888-666666-888888------|-6~~-|
E|--------666666-444444-666666------|-----|
 

Lead:
e|----------|---(I couldnt really tab this part)-------|
B|-16-15----|------------------------------------------|
G|-------15-|-----------------12--------15-------------|
D|---[x4]---|-15-12--12-13-15-----13-15----------------|
A|----------|------------------------------------------|
E|----------|------------------------------------------|

e|----------|--------------------------------------|
B|-16-15----|--------------------------------------|
G|-------15-|-------12-12--------------------------|
D|---[x4]---|-15-15-------15-15--13-13--12-12/13~~-|
A|----------|--------------------------------------|
E|----------|--------------------------------------|

Suggest correction
What's this?
You can suggest a correction to this tab. Community and Mods will review your correction and vote to approve or reject it.
comments
We did not receive enough feedback on this tab! Please rate:
print report bad tab
1 2 3 4 5
2 comments total.
0 reply
korman7 510 wrote on February 16 2012, 07:21 pm

the second chord played in the beginning is 587 not 577

0 reply
Takumi93 32 wrote on August 14 2013, 02:55 pm

How about this?
[Solo]
e|---------------------------------------------------------------|
B|-/13-11--------------------------------------------------------|
G|-/12-10-/12--10------------------------------------------------|
D|--------/10--8---------8/10\8----------------------5-----8--\--|
A|------------------8-10--------10-8--6/8-6---5-6-8-----6-8------|
E|---------------------------------------------------------------|

e|-----------------------------------16-15----------------------------------|
B|-/13-11----------------8-11--------------16-------------------------------|
G|-/12-10-/12--10---8-10------10-8------------15--12-13-12------------------|
D|--------/10--8-------------------------------------------15-13--12/13-13--|
A|--------------------------------------------------------------------------|
E|--------------------------------------------------------------------------|

...or this if you hate hitting multiple strings in a solo (like i do), it sound pretty good too
e|------------------
B|-/13-11----------- etc.
G|---------10b--10--

otherwise, good tab, thanks :)

guest
You may want to rate the tab now too:
select rating
Please do not post tabs as comments. Select "correction" instead!