Oops, an error
Loading. Please wait.

Lovely Sad tab

1,191 views 6 this week
3 commentsread comments
1 2 3 4 5
x 3
add to favorites
×
Save as Personal and add changes to this tab that will be seen only by you. Learn more ›
×
You can save this tab as Personal to edit and correct it or add notes. All changes will be seen only by you. Learn more »
launch autoscroll
font size
0
reset
how to read this tab
guitar tuner
edit
Autoscroll
slow
fast
+/-
esc
set tempo
stop
Author
Lovely Sad - The Maine

Intro:

          A                   Bm                 D              A
e|-----0-------------|-----------------|-----------------|-----------------|                  
B|----2------2-------|---3-----3-------|---3-----3-------|---2-----2-------|                     
G|--------2----2---2-|-----4-----4---4-|-----2-----2---2-|-----2-----2---2-|                        
D|----------2----2---|-------4-----4---|-0-----0-----0---|-------2-----2---| x4                       
A|--0----------------|-2---------------|-----------------|-0---------------|                  
E|-------------------|-----------------|-----------------|-----------------| 

Verse: (Do Intro)

Ugly little feelings crawl inside my head
What’s the point of leaving this California king-sized bed                                   
What-ifs and the should- haves they start to eat my brain                                 
The shadow of my youth has made the sun go black again                                                 


  Bm              D                  A
I look around and I don’t see the prettiest things
     Bm              D                        A                                                      
The evil thoughts upstairs they don’t need company
      Bm              D                A                 D
This broken glass it reflects back the person I’ve become and now
 

e|-------------------|-----------------|         e|---------------------|
B|------2----2-------|---2-------------|         B|------2----2---------|
G|--------2----2---2-|-----2-----2-----| x3 then G|--------2----2---2---|
D|----------2----2---|-------2-----2---|         D|----------2----2-----|
A|--0----------------|-0-------0-----0-|         A|--0----------------0-|
E|-------------------|-----------------|         E|---------------------|

Here I am, I feel numb 
On the fence, on the run 
Spill my guts, what an act
I am sad but to me I’m lovely sad


A-Bm-D-A x4


A         Bm      D                A
Imaginary numbers control the ones we love
A              Bm     D               A
Fooled by affectation and something up above
A                      Bm                             D                      A
If you’re in love with diamonds a simple death you’re dying a wasted life to me
A                      Bm                         D                      A
‘Cause here we are all liars just hopin’ to get higher than everyone we meet
Bm               D                       A
Huxley said we live together but we’re always by ourselves
    Bm                      D                       A 
And if you don’t like this type of weather you can move to someplace else
    Bm           D           A                D
Significance is really found underneath your couch so now

 



e|-------------------|-----------------|         e|---------------------|
B|------2----2-------|---2-------------|         B|------2----2---------|
G|--------2----2---2-|-----2-----2-----| x3 then G|--------2----2---2---|
D|----------2----2---|-------2-----2---|         D|----------2----2-----|
A|--0----------------|-0-------0-----0-|         A|--0----------------0-|
E|-------------------|-----------------|         E|---------------------|

Here you are, feeling numb 
On the fence, On the run 
Down and out, such a trap 
We’re all sad but, to me were lovely sad

A-Bm-D-A (Repeat till fade) or
Repeat intro till fade


Suggest correction
Creating personal tab
Creating personal tab
You can edit any tab online and save it as your Personal.

You can edit, replace or remove any tab part or add personal notes – all changes will be seen only by you.

Personal tabs can be accessed anytime from any device, even offline.
Learn more »
Give kudos to tab author, rate the tab!
1 2 3 4 5
comments
print report bad tab
3 comments total.
0 reply
adamhw 26 Jun 29, 2015 08:28 PM

Is it in A or G?

0 reply
treminaor 108 Feb 14, 2016 03:45 PM

This song is clearly not in A, the chords are wrong. See official concert video for the right chords: https://www.youtube.com/watch?v=2t_uirfvPig

guest
You may want to rate the tab now too:
select rating
Wanna post a correction for this tab? Suggest correction