Oops, an error
Loading. Please wait.

Misery Tab

version 2
version 2

Whole song

Interactive

7,372 views 6 this week
1 commentread comment
1 2 3 4 5
please rate
add to favorites
launch autoscroll
font size
0
reset
how to read this tab
guitar tuner
Autoscroll
slow
fast
+/-
esc
set tempo
stop
Help us to improve Ultimate-Guitar.com Take our survey!
×
Author
I played this by ear and sounded identical. 



Intro
e|------------------------|---------------------0--|
B|------------------------|---------------------0--|
G|------------------------|------------------------|
D|-----2-4-2---2/6--------|-----2-4-2---2/6--------|
A|--2h4------0------------|--2h4------0------------|
E|------------------0-----|------------------0-----|

Haven't figured out the second chord he plays when he says "That's Right".


Verse
I'll say this once again
You people you are my friends
The devil he can't come in
Tonight, that's right

Chorus
C#m        A        E
  Looking for misery 
               C#m
But she found me
       A              E
Lying naked on the floor(Stay away, sweet misery)
C#m       A         E
  I was headed insane
                        C#m
The devil told me his name
              A          B
But he's not welcome here anymore.


e|------------------------|---------------------0--|
B|------------------------|---------------------0--|
G|------------------------|------------------------|
D|-----2-4-2---2/6--------|-----2-4-2---2/6--------|
A|--2h4------0------------|--2h4------0------------|
E|------------------0-----|------------------0-----|

Verse 2
Tell me what do you see 
(What do you see)
When your looking at me
(When you look at me)
This sounds so responsibility 
Is killing me 
Inside, yeah

Chorus 2
C#m        A        E
  Looking for misery 
               C#m
But she found me
       A              E
Lying naked on the floor(Stay away, sweet misery)
C#m       A         E
  I was headed insane
                        C#m
The devil told me his name
              A          B
But he's not welcome here anymore.

Suggest correction
Give kudos to tab author, rate the tab!
1 2 3 4 5
comments
print report bad tab
1 comment total.
0 reply
conradkoh 10 wrote on January 4 2014, 12:39 am

the part for tonight is a F#m chord fully barred, and then followed by a G#
e|-2---4---|
B|-2---4---|
G|-2---5---|
D|-4---6---|
A|-4---6---|
E|-2---4---|

guest
You may want to rate the tab now too:
select rating
Wanna post a correction for this tab? Suggest correction