Oops, an error
Loading. Please wait.

Mr Winter Bass Tab

1,050 views 1 this week
no commentswrite comment
1 2 3 4 5
please rate
add to favorites
launch autoscroll
font size
0
reset
guitar tuner
Tab Pro tools
  • play this tab
  • loop segment
  • change instrument
  • show fretboard
  • metronome
×
Best way to learn
"Mr Winter"
Autoscroll
slow
fast
+/-
esc
set tempo
stop
Contributor
Difficulty
novice
check it out:
(if you wanna bring it down a key, its cool)

0:04
G|----------------------------------------------------|
D|----------------------------------------------------|
A|---------3333333-111111-3333333-555555-33333-111111-|
E|-1111111--------------------------------------------|

0:20
G|----------------------------------------------------|
D|----------------------------------------------------|
A|---------3-11111-3-55555-33333-1111111111-----------|
E|-11111----------------------------------------------|

0:37
G|----------------------------------------------------|
D|----------------------------------------------------|
A|------3-1-3-5-3-1-----------------------------------|
E|-1--------------------------------------------------|

0:45
G|----------------------------------------------------|
D|----------------------------------------------------|
A|---------3-11111-3-5555-3333-1111-1111--------------|
E|-11111----------------------------------------------|

1:05
G|----------------------------------------------------|
D|----------------------------------------------------|
A|---5555-3333-11111111-------------------------------|
E|----------------------------------------------------|

1:09
G|----------------------------------------------------|
D|----------------------------------------------------|
A|------3-1-3-5-3-1-----------------------------------|
E|-1--------------------------------------------------|

1:27
G|----------------------------------------------------|
D|----------------------------------------------------|
A|---------333333-111111-333333-5555-3333-1111--------|
E|-1111111--------------------------------------------|

1:35
G|----------------------------------------------------|
D|----------------------------------------------------|
A|---------3-11111-3-55555-33333-1111111111-----------|
E|-11111----------------------------------------------|

2:17
G|----------------------------------------------------|
D|----------------------------------------------------|
A|--55-55-11-33-33-----11-11----33-33-3455------------|
E|-----------------11--------11-----------------------|

2:45
G|----------------------------------------------------|
D|----------------------------------------------------|
A|---5555-3333-11111111-------------------------------|
E|----------------------------------------------------|

2:49
G|----------------------------------------------------|
D|----------------------------------------------------|
A|---------3-11111-3-55555-33333-1111111111-----------|
E|-11111----------------------------------------------|

2:58
G|----------------------------------------------------|
D|----------------------------------------------------|
A|---------3333333-111111-3333333-555555-33333-111111-|
E|-1111111--------------------------------------------|

3:14
G|---|
D|---|
A|---|
E|-1-|
comments
We did not receive enough feedback on this tab! Please rate:
print report bad tab
1 2 3 4 5
I want to post or [tab]
guest
You may want to rate the tab now too:
select rating
Please do not post tabs as comments. Select "correction" instead!