Oops, an error
Loading. Please wait.

My Heroine Tab

version 2
version 2

Whole song

1,405 views 3 this week
no commentswrite comment
1 2 3 4 5
please rate
add to favorites
launch autoscroll
font size
0
reset
how to read this tab
guitar tuner
Autoscroll
slow
fast
+/-
esc
set tempo
stop
Help us to improve Ultimate-Guitar.com Take our survey!
×
Author
Difficulty
intermediate
The Maine - My Heroine

Intro
Guitar 1
e|----------------------------------------------------------------------|
B|----------------------------------------------------------------------|
G|----------------------------------------------------------------------|
D|----------------------------------------------------------------------|
A|------/12--/5--/3------/12--/15--/12------/12--/5--/3------/12--/15~--|
E|--/5---------------/5-----------------/5---------------/5-------------|

Guitar 2
e|---------------------------------------------|
B|------------3---3----------------------------|
G|--2--2---2--0---0----------------------------|
D|--2--2---2--2---0----------------------------|
A|--0--0---0--3---2----------------------------|
E|----------------3----------------------------|
Verse - First Time
e|--------------------------------------|
B|--------------------------------------|
G|--2-2----2---2--2-2----2---2----------|
D|--2-2-----------2-2-----------4~------|
A|--0-0-----------0-0-----------5~------|
E|-------3---3---------3---3------------|

Second Time
e|--------------------------------------|
B|--------------------------------------|
G|--2-2----2---2--2-2----2---2----------|
D|--2-2-----------2-2-------------------|
A|--0-0-----------0-0-------------------|
E|-------3---3---------3---3------------|

Pre-Chorus
e|--0~------0~~-----------------------|
B|--0~------0~~-----------------------|
G|--1~------13~-----------------------|
D|--0~------0~~-----------------------|
A|--2~------14~-----------------------|
E|--0~------0~~-----------------------|

Chorus
Guitar 1
e|------0~------------------------|----------------------|
B|----1---------1~----------------|------------------15~-|
G|--2---------2-------------(3x)--|--------------13------|
D|----------3-------2~2b----------|--2-------12----------|
A|--------------------------------|----3/14--------------|
E|--------------------------------|----------------------|

Guitar 2 - Figure out the rhythm
e|--------1-1---0-0-0-0------|----0----------------|
B|--1-1---1-1---1-1-1-1------|----0----------------|
G|--2-2---2-2---0-0-0-0------|----1----------------|
D|--2-2---3-3---2-2-2-2------|----0----------------|
A|--0-0---3-3---3-3-3-3------|----2----------------|
E|-----------------------(3x)|----0----------------|

REPEAT Intro

REPEAT Verse

REPEAT Pre-Chorus

REPEAT Chorus

Solo
Guitar 1
e|------5-------------------5---5---------|
B|--------5-------------------8---8/10----|
G|--7b------5--7p5------7b----------------|
D|------------------7~--------------------|
A|----------------------------------------|
E|----------------------------------------|

Guitar 1
e|----------------------------------------------------------------------|
B|-------------------------------------------------------3---5----------|
G|-------------------------------------------------------5b--7b---------|
D|----------------------------------------------------------------------|
A|------/12--/5--/3------/12--/15--/12------/12--/5--/3-----------------|
E|--/5---------------/5-----------------/5------------------------------|

Guitar 2
e|-------------------------------|
B|-------------------------------|
G|--2-2------2-2-----------------|
D|--2-2------2-2------4-4--------|
A|--0-0------0-0------5-5--------|
E|-------------------------------|

REPEAT Chorus

END
Suggest correction
What's this?
You can suggest a correction to this tab. Community and Mods will review your correction and vote to approve or reject it.
comments
We did not receive enough feedback on this tab! Please rate:
print report bad tab
1 2 3 4 5
guest
You may want to rate the tab now too:
select rating
Please do not post tabs as comments. Select "correction" instead!