Oops, an error
Loading. Please wait.

My Heroine tab

version 4
version 4

Whole song

1,164 views 6 this week
no commentswrite comment
1 2 3 4 5
x 3
add to favorites
×
Save as Personal and add changes to this tab that will be seen only by you. Learn more ›
×
You can save this tab as Personal to edit and correct it or add notes. All changes will be seen only by you. Learn more »
launch autoscroll
font size
0
reset
how to read this tab
guitar tuner
edit
Autoscroll
slow
fast
+/-
esc
set tempo
stop
Author
Difficulty
  The Maine - My Heroine
  From the album "Pioneer"
  http://www.youtube.com/user/campkillyourshelf

  **    Tuning: EADGBe (standard)

  0:00 INTRO
  0:21 VERSE
  0:41 PRE-CHORUS
  0:46 CHORUS
  1:06 INTRO
  1:16 VERSE
  1:36 PRE-CHORUS
  1:41 CHORUS
  2:02 SOLO
  2:22 breakdown thingy
  2:32 INTRO
  2:44 CHORUS
  

  0:00 - 0:20
  INTRO - (*) lead guitar

e|-----------------------------------------|\
B|-----------------------------------------| \
G|-----------------------------------------|  \
D|-----------------------------------------|   \
A|-------/12--/5--/3-------/12--/15--/12---|    \
E|---/5----------------/5------------------|     \
                                               (x2)
e|-----------------------------------------|     /
B|-----------------------------------------|    /
G|-----------------------------------------|   /
D|-----------------------------------------|  /                                                  
A|-------/12--/5--/3-------/12--/15~~------| <- the second time, you end like this A|---/12--/15-/12--|
E|---/5----------------/5------------------|/

  INTRO - (*) rhythm guitar

  Rhythm guitar joins in (0:10) with the rest of the band and plays these chords.
  You should be able to figure out the strumming pattern by listening to the song.

    A   C   G
e|--------------| \
B|--------------|  \
G|--2---0-------|   \ You go through this chord pattern 4 times during
D|--2---2---0---|   / the lead guitar's second playthrough of the intro.
A|--0---3---2---|  /
E|----------3---| /


  0:21 - 0:40
  VERSE

e|--------------------------------------------------|
B|--------------------------------------------------|
G|---2--2------2----2-----2--2------2----2------0---|
D|---2--2------2----2-----2--2------2----2-----/4---|
A|---0--0------0----0-----0--0------0----0-----/5---|
E|-----------3----3---------------3----3------------|

e|------------------------------------------|
B|------------------------------------------|
G|---2--2------2----2-----2--2------2----2--|
D|---2--2------2----2-----2--2------2----2--|
A|---0--0------0----0-----0--0------0----0--|
E|-----------3----3---------------3----3----|


  0:41 - 0:45
  PRE-CHORUS

  Strum E7 a few times before sliding into the octave.
  It seems weird, but that's how it's played - you just how to figure out the strumming.

     (E7)

e|--0-----0---|
B|--0-----0---|
G|--1----13---|
D|--x-----x---|
A|--2----14---|
E|--0-----0---|


  0:46 - 1:05
  CHORUS

  (*) lead guitar

e|--------0-(let ring)-----------------------|
B|-----1-----------1-------------------------|
G|--2-----------2-----0-(let ring)-----------|    (x2)
D|-----------3-----------------------2b3r2---|
A|-------------------------------------------|
E|-------------------------------------------|

e|--------0-(let ring)--------------------------------|
B|-----1-----------1----------------------------15~~--|
G|--2-----------2--------------------------13~~-------|
D|-----------3---------2~~--2---------12~~------------|
A|----------------------------3~/14~~-----------------|
E|----------------------------------------------------|

  (*) rhythm guitar

          - strum the F chord a few times before lifting your middle finger (continue strumming),
            place your middle finger on the 2nd fret, D-string, lifting your pinky,
            creating the C chord. It may seem way off, but that is the correct way. You just
            have to listen to the song.

e|--------------------------------------------------------|
B|--1-----1--1----1---------------------------------------|
G|--2-----2--0----0---<-play this three times,-----1/13---|
D|--2-----3--3----2----ending with strumming on->--x/-x---|
A|--0-----3--3----3--------------------------------2/14---|
E|--------------------------------------------------------|
   Am     F       C                                E7


  1:06 - 1:15
  INTRO

  (*) lead guitar

e|-----------------------------------------|
B|-----------------------------------------|
G|-----------------------------------------|
D|-----------------------------------------|
A|-------/12--/5--/3-------/12--/15--/12---|
E|---/5----------------/5------------------|    
                                               
e|-----------------------------------------|     
B|-----------------------------------------|    
G|-----------------------------------------|   
D|-----------------------------------------|                                                    
A|-------/12--/5--/3-------/12--/15--------| 
E|---/5----------------/5------------------|

  (*) rhythm guitar

    A   C   G
e|--------------| \
B|--------------|  \
G|--2---0-------|   \ You go through this chord pattern 4 times while
D|--2---2---0---|   / lead guitar plays the intro.
A|--0---3---2---|  /
E|----------3---| /


  1:16 - 1:35
  VERSE

e|--------------------------------------------------|
B|--------------------------------------------------|
G|---2--2------2----2-----2--2------2----2------0---|
D|---2--2------2----2-----2--2------2----2-----/4---|
A|---0--0------0----0-----0--0------0----0-----/5---|
E|-----------3----3---------------3----3------------|

e|------------------------------------------|
B|------------------------------------------|
G|---2--2------2----2-----2--2------2----2--|
D|---2--2------2----2-----2--2------2----2--|
A|---0--0------0----0-----0--0------0----0--|
E|-----------3----3---------------3----3----|


  1:36 - 1:40
  PRE-CHORUS

  Strum E7 a few times, before sliding into the octave.

   (E7)
e|--0-----0---|
B|--0-----0---|
G|--1----13---|
D|--x-----x---|
A|--2----14---|
E|--0-----0---|


  1:41 - 2:01
  CHORUS

  (*) lead guitar

e|--------0-(let ring)-----------------------|
B|-----1-----------1-------------------------|
G|--2-----------2-----0-(let ring)-----------|    (x2)
D|-----------3-----------------------2b3r2---|
A|-------------------------------------------|
E|-------------------------------------------|

e|--------0-(let ring)--------------------------------|
B|-----1-----------1----------------------------15~~--|
G|--2-----------2--------------------------13~~-------|
D|-----------3---------2~~--2---------12~~------------|
A|----------------------------3~/14~~-----------------|
E|----------------------------------------------------|

  (*) rhythm guitar

e|--------------------------------------------------------|
B|--1-----1--1----1---------------------------------------|
G|--2-----2--0----0---<-play this three times,-----1/13---|
D|--2-----3--3----2----ending with strumming on->--x/-x---|
A|--0-----3--3----3--------------------------------2/14---|
E|--------------------------------------------------------|
   Am     F       C                                E7


  2:02 - 2:21
  SOLO

  (*) lead guitar

e|--------5---------------------------5-----5-----------|
B|-----------5---------------------------8-----8/10-----|
G|---7b9--------5--7b8r7p5-------7b9--------------------|
D|--------------------------7\--------------------------|
A|------------------------------------------------------|
E|------------------------------------------------------|
 |                                                      |
 |(*) rhythm guitar                                     |
 |                                                      |
e|------------------------------------------------------|
B|------------------------------------------------------|
G|--2--2------------------------2--2-----------------0--|
D|--2--2------------------------2--2----------------/4--|
A|--0--0------------------------0--0----------------/5--|
E|------------------------------------------------------|
                                                    
  (*) lead guitar - play the intro as if you don't
                care whether you play it right or not
 
e|--------------------------------------------------------------------------------------------|
B|----------------------------------------------------------3---3---3---3----5---5---5---5----|
G|----------------------------------------------------------5b7-5b7-5b7-5b7--7b9-7b9-7b9-7b9--|
D|--------------------------------------------------------------------------------------------|
A|------/12--/5--/3-------/12--/15--/12-------/12--/5--/3-------------------------------------|
E|--/5----------------/5------------------/5--------------------------------------------------|
 |                                                                                            |
 |(*) rhythm guitar                                                                           |
 |                                                                                            |
e|--------------------------------------------------------------------------------------------|
B|--------------------------------------------------------------------------------------------|
G|--2--2----------------------------------2--2------------------------------------------------|
D|--2--2----------------------------------2--2-------------------------------5------5---------|
A|--0--0----------------------------------0--0-------------------------------5------5---------|
E|---------------------------------------------------------------------------3------3---------|


  2:22 - 2:31
  breakdown thingy (no guitar)

  2:32 - 2:43
  INTRO

e|-----------------------------------------|
B|-----------------------------------------|
G|-----------------------------------------|
D|-----------------------------------------|
A|-------/12--/5--/3-------/12--/15--/12---|
E|---/5----------------/5------------------|

e|--------------------------------------------------------|
B|--------------------------------------------------------|
G|--------------------------------------------------------|
D|------------------------------------------------12b13~--|
A|-------/12--/5--/3-------/12--/15--/12---15b16~---------|
E|---/5----------------/5---------------------------------|

  Rhythm guitar plays A in the background.


  2:44 - 3:37
  CHORUS x2

(*) lead guitar

e|--------0-(let ring)-----------------------|
B|-----1-----------1-------------------------|
G|--2-----------2-----0-(let ring)-----------|    (x2)
D|-----------3-----------------------2b3r2---|
A|-------------------------------------------|
E|-------------------------------------------|

e|--------0-(let ring)--------------------------------|
B|-----1-----------1----------------------------15~~--|
G|--2-----------2--------------------------13~~-------|
D|-----------3---------2~~--2---------12~~------------|
A|----------------------------3~/14~~-----------------|
E|----------------------------------------------------|

  (*) rhythm guitar

e|--------------------------------------------------------|
B|--1-----1--1----1---------------------------------------|
G|--2-----2--0----0---<-play this three times,-----1/13---|
D|--2-----3--3----2----ending with strumming on->--x/-x---|
A|--0-----3--3----3--------------------------------2/14---|
E|--------------------------------------------------------|
   Am     F       C                               E7


(*) lead guitar

e|--------0-(let ring)-----------------------|
B|-----1-----------1-------------------------|
G|--2-----------2-----0-(let ring)-----------|    (x2)
D|-----------3-----------------------2b3r2---|
A|-------------------------------------------|
E|-------------------------------------------|

e|--------0-(let ring)--------------------------------|
B|-----1-----------1----------------------------15~~--|
G|--2-----------2--------------------------13~~-------|
D|-----------3---------2~~--2---------12~~------------|
A|----------------------------3~/14~~-----------------|
E|----------------------------------------------------|

  (*) rhythm guitar

e|--------------------------------------------------------|
B|--1-----1--1----1---------------------------------------|
G|--2-----2--0----0---<-play this three times,-----1/13---|
D|--2-----3--3----2----ending with strumming on->--x/-x---|
A|--0-----3--3----3--------------------------------2/14---|
E|--------------------------------------------------------|
   Am     F       C                                E7

And yeah, that's it. If you have any questions or corrections, please comment.
This took me a while, so please rate.

Tabbed while watching one of the guitarists of The Maine break down the song.

            
            
Suggest correction
Creating personal tab
Creating personal tab
You can edit any tab online and save it as your Personal.

You can edit, replace or remove any tab part or add personal notes – all changes will be seen only by you.

Personal tabs can be accessed anytime from any device, even offline.
Learn more »
Give kudos to tab author, rate the tab!
1 2 3 4 5
comments
print report bad tab
guest
You may want to rate the tab now too:
select rating
Wanna post a correction for this tab? Suggest correction