Oops, an error
Loading. Please wait.

Right Girl Tab

version 1
version 1

Whole song

18,085 views 18 this week
1 commentread comment
1 2 3 4 5
excellent!
x 5
add to favorites
launch autoscroll
font size
0
reset
how to read this tab
guitar tuner
Autoscroll
slow
fast
+/-
esc
set tempo
stop
Help us to improve Ultimate-Guitar.com Take our survey!
×
Difficulty
novice
Band: The Maine
Song: Right Girl
Album: Black & White
Tabbed By: real_Mclovin
Email: Ryanquigg123@hotmail.com

^= half a bend

Srandard tuning

Intro
Guitar 1
e-------------------------| x2
b-------------------------|
g-------77----------------| 
d-5-5---77---7-7--99997777|
a-5-5---55---7-7--99997777|
e-3-3--------5-5--77775555|

Guitar 2
e-------------------------| x2
b-----7----7-------7------|
g-4-79-9-79-9-----9-979767|
d-------------------------|
a-------------------------|
e-------------------------|

verse 1
e------------------------| x4
b------------------------|
g------77-7--------77-7--|
d55-5--77-7--77-7--77-7--|
a35-5--55-5--77-7--55-5--|
e33-3--------55-5--------|

pre chorus
e------------------------|
b------------------------|
g------------------------|
d9----5----542----55557--|
a9----5----542----55557--|
e7----3----3------33335--|

chorus
guitar 1
e------------------------| x4 
b------------------------| (the third and fourth time through change s bit)
g------7-7---------------|
d5-5---7-7---7-7---7-7---|
a5-5---5-5---7-7---7-7---|
e3-3---------5-5---5-5---|

e------------------------| 
b------------------------| 
g------7-7---------------|
d5-5---7-7---7-7--555--7-|
a5-5---5-5---7-7--555--7-|
e3-3---------5-5--777--5-|

e------------------------| 
b------------------------| 
g------7-7---------------|
d5-5---7-7---77779-------|
a5-5---5-5---77779-------|
e3-3---------55557-------|

guitar 2
e---1--------------------| x4
b---1--------------------|
g---4^----67777677711999-|
d---------xxxxxxxxxxxxxx-|
a---------4555545559-777-|
e------------------------|

repeat intro

repeat verse x2

repeat pre chorus

repeat chorus

repeat intro again

bridge
e-----------------------| x2
b-----------------------|
g-----7-7---------------|
d5-5--7-7--7-7---9--7---|
a5-5--5-5--7-7---9--7---|
e3-3-------5-5---7--5---|

verse x2

pre chorus 

chorus

intro

bridge and the intro solo part mixed

Suggest correction
comments
print report bad tab
1 comment total.
0 reply
Sparkysguitar01 43 wrote on March 24 2012, 10:55 am

Great job! :)

guest
You may want to rate the tab now too:
select rating
Wanna post a correction for this tab? Suggest correction