Oops, an error
Loading. Please wait.

Right Girl Tab

version 2
version 2

Whole song

4,351 views 6 this week
no commentswrite comment
1 2 3 4 5
please rate
add to favorites
launch autoscroll
font size
0
reset
how to read this tab
guitar tuner
Autoscroll
slow
fast
+/-
esc
set tempo
stop
Help us to improve Ultimate-Guitar.com Take our survey!
×
Not 100% accurate.
Email: killmeimspecial@gmail.com

(/) Slide Up  (\) Slide Down  (h) Hammer On  (p) Pull Off  (b) Bend (r) Release (v) Vibrato

Intro:
E|-------------------------------------|
B|--3--3h5/7\5--3h5/7\5--7\5--3--0--0--|  x2
G|-------------------------------------|
D|-------------------------------------|
A|-------------------------------------|
E|-------------------------------------|

Verse:
E|--------------------------------------|
B|--------------------------------------| x5
G|-------7777---------------------------|
D|-5555--7777-7777--99999---------------|
A|-5555--5555-7777--99999---------------|
E|-3333-------5555--77777---------------|


Pre-chorus ("But the alcohol made it's way down..."):
E|-----------------------------------------|
B|-----------------------------------------|
G|------7~---------------9     ------------|
D|-5~---7~--7~---9     --9 (x5)------------|
A|-5~---5~--7~---9 (x8)--7     ------------|
E|-3~-------5~---7     --------------------|

Chorus x4:

Play this 1st time:				Second time:

E|xxxx--------------------            |----------------------|
B|xxxx--------------------            |----------------------|
G|xxxx-----55-------------            |-----55---------------|
D|xxxx-55--55--55--99-----            |-55--55--55--9 -------|
A|xxxx-55--77--55--99-----            |-55--77--55--9 (x5)---|
E|xxxx-33------77--77-----            |-33------77--7 -------|


Third and fourth time:

E|----------------------|
B|----------------------|
G|-----55---------------|
D|-55--55--55--99-------|
A|-55--77--55--99-------|
E|-33------77--77-------|

Intro again:
E|-------------------------------------|
B|--3--3h5/7\5--3h5/7\5--7\5--3--0--0--|  x2
G|-------------------------------------|
D|-------------------------------------|
A|-------------------------------------|
E|-------------------------------------|

Verse again too:
E|--------------------------------------|
B|--------------------------------------| x5
G|-------7777---------------------------|
D|-5555--7777-7777--99999---------------|
A|-5555--5555-7777--99999---------------|
E|-3333-------5555--77777---------------|


Pre-chorus ("And I got my stand-bys waiting on the line"):
E|-----------------------------------------|
B|-----------------------------------------|
G|------7~---------------9     ------------|
D|-5~---7~--7~---9     --9 (x5)------------|
A|-5~---5~--7~---9 (x8)--7     ------------|
E|-3~-------5~---7     --------------------|

Chorus x4:

Play this 1st time:				Second time:

E|xxxx--------------------            |----------------------|
B|xxxx--------------------            |----------------------|
G|xxxx-----77-------------            |-----77---------------|
D|xxxx-55--77--77--99-----            |-55--77--77--9 -------|
A|xxxx-55--55--77--99-----            |-55--55--77--9 (x5)---|
E|xxxx-33------55--77-----            |-33------55--7 -------|


Third and fourth time:

E|----------------------|
B|----------------------|
G|-----77---------------|
D|-55--77--77--99-------|
A|-55--55--77--99-------|
E|-33------55--77-------|

Intro again (x1 this time):

E|-------------------------------------|
B|--3--3h5/7\5--3h5/7\5--7\5--3--0--0--|  x1
G|-------------------------------------|
D|-------------------------------------|
A|-------------------------------------|
E|-------------------------------------|

Post-intro?:
E|-----------------------------|
B|-----------------------------|
G|----- 7777-------------------|
D|-5-5--7777--7-7--9999--------|  x2
A|-5-5--5555--7-7--9999--------|
E|-3-3--------5-5--7777--------|


Bridge (clean):

E|------------------------------|
B|------------------------------|
G|----- 7-7---------------------|
D|-5-5--7-7--7-7--9-9--5-5------|  x2
A|-5-5--5-5--7-7--9-9--5-5------|
E|-3-3-------5-5--7-7--7-5------|


Chorus again (without the mutes).

First time:				Second time:
E|--------------------            |----------------------|
B|--------------------            |----------------------|
G|-----77-------------            |-----77---------------|
D|-55--77--77--99-----            |-55--77--77--9 -------|
A|-55--55--77--99-----            |-55--55--77--9 (x5)---|
E|-33------55--77-----            |-33------55--7 -------|


Third and fourth time:

E|----------------------|
B|----------------------|
G|-----77---------------|
D|-55--77--77--99-------|
A|-55--55--77--99-------|
E|-33------55--77-------|

Intro:

E|-------------------------------------|
B|--3--3h5/7\5--3h5/7\5--7\5--3--0--0--|  x4
G|-------------------------------------|
D|-------------------------------------|
A|-------------------------------------|
E|-------------------------------------|

Ending:
E|-----------------------|
B|-----------------------|
G|-----------------------|
D|--7~~~-----------------|
A|--7~~~-----------------|
E|--5~~~~----------------|
Suggest correction
Give kudos to tab author, rate the tab!
1 2 3 4 5
comments
print report bad tab
guest
You may want to rate the tab now too:
select rating
Please do not post tabs as comments. Select "correction" instead!