Oops, an error
Loading. Please wait.

Santa Stole My Girlfriend Tab

version 3
version 3

Whole song

Interactive

4,512 views 6 this week
no commentswrite comment
1 2 3 4 5
accurate
x 3
add to favorites
launch autoscroll
font size
0
reset
how to read this tab
guitar tuner
Autoscroll
slow
fast
+/-
esc
set tempo
stop
Help us to improve Ultimate-Guitar.com Take our survey!
×
Author
----------------------------------------------------------------------------
              "Santa Stole My Girlfriend" by The Maine
----------------------------------------------------------------------------



Intro/Verses(Rhythm)

E|---------------------------------------------|
B|---3--------------3--------3-------3----3----|
G|---0--------------0--------0-------0----2----|     x8(4/4)
D|---0-----------------------4-----------------|
A|------0-2h-3h--3----3/5-5------0-------------|
E|---3-----------------------------0----2------|

Intro (Lead)
E|------------------------------------------------|
B|-----3-/5-----------------------3-/5------------|
G|---4------2---0-2-4-2-0-------4------2----------|    x2
D|---------------------------------------5-4------|
A|-------------------------------------------5----|
E|------------------------------------------------|


Pre-Chorus (Rhythm)
E|---0-0-0-0---0-0-0-0------|
B|---1-1-1-1---1-1-1-1------|
G|---0-0-0-0---0-0-0-0------|     x2
D|---2-2-2-2---2-2-2-2------|
A|---0-0-0-0---3-3-3-3------|
E|--------------------------|


Chorus (Rhythm)
E|---3----0----3----3-------|
B|---3----1----3----3-------|
G|---0----0----0----0-------|     x3
D|---0----2----2----2-------|
A|---2----3----2----3-------|
E|---5----0----0------------|

E|---0-0-0-0-0---0---0-------|
B|---1-1-1-1-1---1---1-------|
G|---0-0-0-0-0---0---0-------|    x1
D|---2-2-2-2-2---0---2-------|
A|---0-0-0-0-0---2---3-------|
E|---------------------------|


Chorus (Lead)
E|---3---3---5---5---3---3---2---2--------|
B|-----3---3---3---3---3---3---3---3------|
G|----------------------------------------|     x3
D|----------------------------------------|
A|----------------------------------------|
E|----------------------------------------|


Bridge (Rhythm)

E|---------------------------------------------|
B|---3--------------3--------3-------3----3----|
G|---0--------------0--------0-------0----2----|     x4                       
D|---0-----------------------4-----------------|
A|------0-2h-3h--3----3/5-5------0-------------|
E|---3-----------------------------0----2------|


Bridge (Lead) Piano
E|-----------19--17--15--15-----------|
B|---15-------------------------------|
G|-------16---------------------------|     x4
D|------------------------------------|
A|------------------------------------|
E|------------------------------------|

Suggest correction
Give kudos to tab author, rate the tab!
1 2 3 4 5
comments
print report bad tab
guest
You may want to rate the tab now too:
select rating
Wanna post a correction for this tab? Suggest correction