Oops, an error
Loading. Please wait.

Saving Grace Chords

25,800 views 24 this week
5 commentsread comments
1 2 3 4 5
excellent!
x 9
add to favorites
launch autoscroll
font size
0
reset
transpose
0
reset
simplify chords
- display chords -
guitar tuner
Tab Pro tools
  • play this tab
  • loop segment
  • change instrument
  • show fretboard
  • metronome
Autoscroll
slow
fast
+/-
esc
set tempo
stop
Contributor
Song: Saving Grace
Band: The Maine
Album: Black And White
Tuning: Standard, capo 3

Hey guys, I didn't see a tab for this song so I figured it out and it's pretty 
easy to play! Please rate and comment and be sure to check out my other tabs :)

C#m = x46650
A2 = x02200
E = 022100
B = x24400

Here's the intro for lead guitar plays (not in relation to capo 3):

E|---------10-10-10-10-8-8-8-7-5-5-5-7-|
B|-8-8-8-8-----------------------------|
G|-------------------------------------|
D|-------------------------------------|
A|-------------------------------------|
E|-------------------------------------|

E|---------10-10-10-10-8-8-8-7-5-3-|
B|-8-8-8-8-------------------------|
G|---------------------------------|
D|---------------------------------|
A|---------------------------------|
E|---------------------------------|


Intro:
[ C#m A2 E B ] x2

E
I walk the tight rope 

C#m		
on my way home

B
you're my backbone

E					  C#m   B
i know you're somewhere close behind me

E				    C#m			B
i walk the fault line in a dirt field in the spring time

E				   C#m   B
i feel the wind start to remind me

A2
of you (you)

B
and the sweet talk on the sidewalk

A2
it's true (true)

B
all know is

C#m     A2             E    B
all we have is what's left today

C#m        A2             E    B
hearts so pure in this broken place

C#m    			A2
cause we are, we are, we are

E		      B
who we are, we are, we are


C#m     B       A2
lovers lost in space

B
we're searching for our saving grace


[ C#m A2 E B ] x2

		   E
and i still remember

how your lips taste

    C#m  B
on holidays

               E
you leave in december

                  C#m       B
what can i do to make you stay?

      E
cause we won't fade away

       C#m               B
we'll find peace while others change

E						C#m   B
and i know you're somewhere close behind me

A2
and its true (true)

           B
oh, the sweet sound in the background

A2
it's you (you) 

B
all i know is

C#m     A2             E    B
all we have is what's left today

C#m     A2             E    B
hearts so pure in this broken place

C#m    			A2
cause we are, we are, we are

E				B
who we are, we are, we are


C#m     B       A2
lovers lost in space

         B                      C#m   B
we're searching for our saving grace

A2
oooh yeah
					   C#m  B
we're searching for our saving grace

A2
oooh yeah

C#m
keep on searching

B
keep on searching

A2
keep, keep

A2
keep, keep

C#m
keep on searching

B
keep on searching

A2
keep, keep

A2
keep, keep

E
i walk the tightrope
               C#m
you're my way home
             B
you're my backbone
A2                             B
you'll always be here right beside me


C#m     A2             E    B
all we have is what's left today

C#m     A2             E    B
hearts so pure in this broken place

C#m    			A2
cause we are, we are, we are

E				B
who we are, we are, we are


C#m     B       A2
lovers lost in space

         B
we're searching for our saving grace


[ C#m A E B ] x2 (or you can play the intro twice)

End on E 
comments
print report bad tab
5 comments total. Showing first comments.
0 reply
KavenTheNator wrote on August 6 2010, 11:53 am

An easier way to play the lead intro [based off what you have] is

E|---------10-10-10-10-8-8-8-7-5-5-5-7-|
B|-8-8-8-8-----------------------------|
G|-------------------------------------|
D|-------------------------------------|
A|-------------------------------------|
E|-------------------------------------|

E|---------10-10-10-10-8-8-8-7-5-3-|
B|-8-8-8-8-------------------------|
G|---------------------------------|
D|---------------------------------|
A|---------------------------------|
E|---------------------------------|

It's less of a jump from the 3rd fret to the 10th fret.

0 reply
HeyApril wrote on August 16 2010, 02:33 pm

haha yeah you're right. I wrote this at like 4am otherwise I probably would've noticed that. I'll change it, thanks for commenting and rating :)

0 reply
notesonmyguitar wrote on August 17 2010, 05:51 pm

heyyy, instead of having to do either of those, if you want to play both parts, and keep the capo on, then its just

E|-0-0-0-0-7-7-7-7-5-5-5-4-2-2-2-4-----|
B|-------------------------------------|
G|-------------------------------------|
D|-------------------------------------|
A|-------------------------------------|
E|-------------------------------------|

E|-0-0-0-0-7-7-7-7-5-5-5-4-2-0-----|
B|---------------------------------|
G|---------------------------------|
D|---------------------------------|
A|---------------------------------|
E|---------------------------------|

i just think it's easier if you want to playt both parts :]
good tab thoughh :D

I want to post or [tab]
guest
You may want to rate the tab now too:
select rating
Please do not post tabs as comments. Select "correction" instead!