Oops, an error
Loading. Please wait.

Saving Grace Tab

version 1
version 1

Whole song

3,781 views 1 this week
no commentswrite comment
1 2 3 4 5
2 more votes to show rating
add to favorites
launch autoscroll
font size
0
reset
how to read this tab
guitar tuner
Autoscroll
slow
fast
+/-
esc
set tempo
stop
Help us to improve Ultimate-Guitar.com Take our survey!
×
Author
Difficulty
Capo
intermediate
3rd fret
I tabbed this off this kids video on youtube; http://www.youtube.com/watch?v=nzWLUYqaWJY
Tabbed by: AllTimeAcid, ME :)
Hope this helps, if your stuck, please watch the video :)

Capo 3 for both guitars! And tabbing is done in relation to Capo

Guitar 1: Garrett Monaco
Guitar 2: Kennedy Brook
Key;
\ - Slide
x - Palm mute
~ - Virbrato or let it ring

Intro
Guitar 1:

e|--0000-0-0-0-0--0-0-0-0--0000--|   |-0-|
B|--5555-12121212-10101010-7779--|   |-5-|
G|-------------------------------| x2|---|End on this note second time round
D|-------------------------------|   |---|
A|-------------------------------|   |---|
E|-------------------------------|   |---|
(they are 12's and 10's not 1 2 and 1 0)

Guitar 2:

e|--00-00-00-00-------|
B|--00-00-00-00-------|
G|--66-22-11-44-------| x2
D|--66-22-22-44-------|
A|--44-00-22-22-------|
E|--xx-xx-xx-xx-------|

Verse 1 (I walk the tightrope...)
Both Guitars (Optional):

e|--0000-00-00------|
B|--0000-00-00------|
G|--1111-66-44------| x4
D|--2222-66-44------|
A|--2222-44-22------|
E|--xxxx-xx-xx------|

Pre-Chorus (You, and the sweet talk...)
Both Guitars (Optional):

e|--0000-0000-0000-0~----|
B|--0000-0000-0000-0~----|
G|--2222-4444-2222-4~----|
D|--2222-4444-2222-4~----|
A|--0000-2222-0000-2~----|
E|--xxxx-xxxx-xxxx-x-----|

Chorus (All we have...)
Both Guitars (Optional):

e|--00-00-00-00-------|
B|--00-00-00-00-------|
G|--66-22-11-44-------| x2
D|--66-22-22-44-------|
A|--44-00-22-22-------|
E|--xx-xx-xx-xx-------|

(We are, who we are.)
e|--0-00-0-00-------|
B|--0-00-0-00-------|
G|--6-22-1-44-------|
D|--6-22-2-44-------|
A|--4-00-2-22-------|
E|--x-xx-x-xx-------|
Listen to the strumming for this bit

(Lovers lost in space...)
e|--00-00-0000-0~--|
B|--00-00-0000-0~--|
G|--66-44-2222-4~--|
D|--66-44-2222-4~--|
A|--44-22-0000-2~--|
E|--xx-xx-xxxx-x~--|

Short Instrumental
Guitar 1: Same as Intro but stop when you reach the 7, second time round.
Guitar 2: Same as Intro.

Verse 2
Both Guitars (Optional): Same as Verse 1

Pre-Chorus
Both Guitars (Optional): Same as last time

Chorus 2
Both Guitars (Optional):

e|--00-00-00-00-------|
B|--00-00-00-00-------|
G|--66-22-11-44-------| x2
D|--66-22-22-44-------|
A|--44-00-22-22-------|
E|--xx-xx-xx-xx-------|

(We are, who we are.)
e|--0-00-0-00-------|
B|--0-00-0-00-------|
G|--6-22-1-44-------|
D|--6-22-2-44-------|
A|--4-00-2-22-------|
E|--x-xx-x-xx-------|
Listen to the strumming for this bit

(Lovers lost in space...)
e|--00-00-0000-0000--|
B|--00-00-0000-0000--|
G|--66-44-2222-4444--|
D|--66-44-2222-4444--|
A|--44-22-0000-2222--|
E|--xx-xx-xxxx-xxxx--|

Solo
Guitar 1:

e|--0~0-0-0-0000---0~0~0~----|
B|--5~7-9-4-5420---5~0~7~----|
G|---------------------------|
D|---------------------------|
A|---------------------------|
E|---------------------------|

e|--0~0-0-0-0000--\0~-0~\0~-----|
B|--5~7-9-4-5420--\10~0~\12~----|
G|------------------------------|
D|------------------------------|
A|------------------------------|
E|------------------------------|

e|--0~0-0-0-000---0000--0000--000--0000--0000--0--|
B|--5~7-9-4-542---00010-00010-0010-00010-00010-12-|
G|------------------------------------------------|
D|------------------------------------------------|
A|------------------------------------------------|
E|------------------------------------------------|

e|--0~0-0-0-000---0000--0000--000--0000--0000--0--|
B|--5~7-9-4-542---00010-00010-0010-00010-00010-12-|
G|------------------------------------------------|
D|------------------------------------------------|
A|------------------------------------------------|
E|------------------------------------------------|

Guitar 2:

e|--0000-0000-00000000---|
B|--0000-0000-00000000---|
G|--6666-4444-22222222---| x2
D|--6666-4444-22222222---|
A|--4444-2222-00000000---|
E|--xxxx-xxxx-xxxxxxxx---|

e|--0000-0000-00x00x00---|
B|--0000-0000-00x00x00---|
G|--6666-4444-22x22x22---| x2
D|--6666-4444-22x22x22---|
A|--4444-2222-00x00x00---|
E|--xxxx-xxxx-xxxxxxxx---|
(Bit of a breakdown)

Bridge
Both Guitars (Guitar 2 would be best):

e|--0000-00-00-00-0~----|
B|--0000-00-00-00-0~----|
G|--1111-66-44-22-4~----|
D|--2222-66-44-22-4~----|
A|--2222-44-22-00-2~----|
E|--xxxx-xx-xx-xx-x-----|

Chorus 3
Both Guitars (Optional): Same as other chorus'

Outro
Guitar 1: Play the Intro
Guitar 2: Play the Intro

Key;
\ - Slide
x - Palm mute
~ - Virbrato or let it ring

Hope this helped, and again, if your stuck, please watch the video :)

Tabbed by: AllTimeAcid, ME :)
Suggest correction
Give kudos to tab author, rate the tab!
1 2 3 4 5
comments
print report bad tab
guest
You may want to rate the tab now too:
select rating
Wanna post a correction for this tab? Suggest correction