Oops, an error
Loading. Please wait.

Take Me Dancing Tab

18,025 views 1 this week
10 commentsread comments
1 2 3 4 5
x 10
add to favorites
launch autoscroll
font size
0
reset
how to read this tab
guitar tuner
Autoscroll
slow
fast
+/-
esc
set tempo
stop
Help us to improve Ultimate-Guitar.com Take our survey!
×
Author
Capo
4th fret
I heard this song, by this amazing band, and just could stop listening to it!
And then I came here and couldn't find it's tab, so I decided to try to do it...
It's my first one, so if it's wrong, please coment it.

I took it from here: http://www.youtube.com/watch?v=TANvZ9sy-SQ&feature=related

Standard Tuning

Capo 4th fret

INTRO

E|---------------------------|
B|--1--1--1--1--1--1--1--1---|
G|--2--2--2--2--2--2--2--2---|
D|--2--2--2--2--2--2--2--2---|
A|---------------------------|
E|-----3-----3-----3-----3---|

VERSE 1

"Oh a good man said
If you're feeling dead
You gotta try to find a way to be alive"

E|---------------------------| 
B|--1--1--1--1--1------------|
G|--2--------2--2------------|
D|--2--2-----2--2------------|
A|-----3--2------------------|
E|--------3-----4------------|

VERSE 2

"This is not a game that you have to play
Don't need a reason to breath just like you die"

E|---------------------------| 
B|--1--1--1--1--1------------|
G|--2--------2---------------|
D|--2--2-----2---------------|
A|-----3--2-----2------------|
E|--------3-----3------------|

CHORUS

"Give me thunder
Give me lightning
And I will give you every part of me

Take me dancing
Get me fucked up
Play that old guitar and we will sing"

E|---------------------------| 
B|--1--1--1--1--1------------|
G|--------2------------------|2x
D|--2-----3--2---------------|
A|--3--2--3--3--2------------|
E|-----3--------3------------|

INTRO AGAIN

E|---------------------------|
B|--1--1--1--1--1--1--1------|
G|--2--2--2--2--2--2--2------|
D|--2--2--2--2--2--2--2------|
A|---------------------------|
E|-----3-----3-----3---------|

VERSE 3

"Oh my old man said
You must die in your bed the way you make it
No one can make it like you do"

E|---------------------------| 
B|--1--1--1--1--1------------|
G|--2--------2--2------------|
D|--2--2-----2--2------------|
A|-----3--2------------------|
E|--------3-----4------------|

VERSE 4

"Oh you're not alone
You still have a home
No matter what you do my son
I'm still proud of you"

E|---------------------------| 
B|--1--1--1--1--1------------|
G|--2--------2---------------|
D|--2--2-----2---------------|
A|-----3--2-----2------------|
E|--------3-----3------------|

CHORUS

"Give me thunder
Give me lightning
And I will give you every part of me

Take me dancing
Get me fucked up
Play that old guitar and we will sing"

E|---------------------------| 
B|--1--1--1--1--1------------|
G|--------2------------------|2x
D|--2-----3--2---------------|
A|--3--2--3--3--2------------|
E|-----3--------3------------|

BRIDGE

E|---------------------------| 
B|--1--1-----1---------------|
G|--2--------2---------------|2x
D|--3-----2--2---------------|
A|--3--2--2------------------|
E|-----3---------------------|

then

E|---------------------------| 
B|--1--1-----1--1--1---------|
G|--2--------2-----2---------|
D|--3-----2--2-----3---------|
A|--3--2--2-----2--3---------|
E|-----3--------3------------|

CHORUS

"Give me thunder
Give me lightning
And I will give you every part of me

Take me dancing
Give me thunder
Play that old guitar and we will sing"

E|---------------------------| 
B|--1--1--1--1--1------------|
G|--------2------------------|2x
D|--2-----3--2---------------|
A|--3--2--3--3--2------------|
E|-----3--------3------------|

And ends with Am

E|-----|
B|--1--|
G|--2--|
D|--2--|
A|-----|
E|-----|

That's it!
I hope you enjoy, and if you did, please rate it! :)
Suggest correction
comments
print report bad tab
10 comments total. Showing first comments.
0 reply
miguelpppires 10 Jan 22, 2013 09:59 AM

I think the intro goes like this:


INTRO

E|---------------------------|
B|--1--1--1--1--1--1--1--1---|
G|--2--2--2--2--2--2--2--2---|
D|--2--2--2--2--2--2--2--2---|
A|---------------------------|
E|-----4-----4-----4-----4---|

0 reply
miguelpppires 10 Jan 22, 2013 10:00 AM

INTRO*****

E|---------------------------|
B|--1--1--1--1--1--1--1--1---|
G|--2--2--2--2--2--2--2--2---|
D|--2--2--2--2--2--2--2--2---|
A|---------------------------|
E|-----3-----3-----3-----3---|

0 reply
StuAndTheAve 10 Feb 11, 2013 06:31 PM

Any chance somebody could tab the solo out? What you have seems pretty spot on though, nice tab.

guest
You may want to rate the tab now too:
select rating
Wanna post a correction for this tab? Suggest correction