Oops, an error
Loading. Please wait.

The Towns Been Talking Tab

4,502 views 1 this week
1 commentread comment
1 2 3 4 5
accurate
x 4
add to favorites
launch autoscroll
font size
0
reset
how to read this tab
guitar tuner
Autoscroll
slow
fast
+/-
esc
set tempo
stop
Help us to improve Ultimate-Guitar.com Take our survey!
×
Difficulty
novice
Hey i think this is cool (except for the verse (SO SORRY)) if not sorry, but feel free 
correct me.

intro~~~~
E|0000000000000000-000000000000XX---|
B|0000000000000000-000000000000XX---|
G|9999999999999999-444444444444XX---|
D|9999999999999999-444444444444XX---|
A|7777777777777777-222222222222XX---|
e|-----------------------------XX---|

E|0000000000000000-0000000000000000-0000000000000000-0000000000000000-|
B|0000000000000000-0000000000000000-0000000000000000-0000000000000000-|
G|9999999999999999-4444444444444444-2222222222222222-2222222222222222-|
D|9999999999999999-4444444444444444-2222222222222222-2222222222222222-|
A|7777777777777777-2222222222222222-0000000000000000-0000000000000000-|
e|--------------------------------------------------------------------|

guitar 2
E|-----------------|
B|12----9----------|
G|---9-----9--11-9-| x4
D|-----------------|
A|-----------------|
e|-----------------|


verse~~~~
 Not Sure SORRY!!!


prechorus~~~~
E|0--00--00-------0--00--00-------0000000000000000-|
B|0--00--00-------0--00--00-------0000000000000000-|
G|4--46--62-------4--46--64-------4444444444444444-|
D|4--46--62-------4--46--64-------4444444444444444-|
A|2--24--40-------2--24--42-------2222222222222222-|
e|-------------------------------------------------|
"You're in love with love..."

chorus~~~~
E|0000000000000000-0000000000000000-0000000000000000-0000000000000000-|
B|0000000000000000-0000000000000000-0000000000000000-0000000000000000-|
G|9999999999999999-4444444444444444-2222222222222222-2222222222222222-|
D|9999999999999999-4444444444444444-2222222222222222-2222222222222222-|
A|7777777777777777-2222222222222222-0000000000000000-0000000000000000-|
e|--------------------------------------------------------------------|
"We've heard all about you..."

guitar 2
E|-----------------|
B|12----9----------|
G|---9-----9--11-9-| x4
D|-----------------|
A|-----------------|
e|-----------------|


bridge~~~~
E|0-0---XX0-0---XX--0-0---XX0-0---XX--|
B|0-0---XX0-0---XX--0-0---XX0-0---XX--|
G|1-1---XX1-1---XX--1-1---XX1-1---XX--|
D|2-2---XX2-2---XX--2-2---XX2-2---XX--|
A|2-2---XX2-2---XX--2-2---XX2-2---XX--|
e|0-0---XX0-0---XX--0-0---XX0-0---XX--|

E|0-0---XX0-0---XX--0-0---XX0-0---XX--|
B|0-0---XX0-0---XX--0-0---XX0-0---XX--|
G|2-2---XX2-2---XX--2-2---XX2-2---XX--|
D|2-2---XX2-2---XX--2-2---XX2-2---XX--|
A|0-0---XX0-0---XX--0-0---XX0-0---XX--|
e|------XX------XX--------XX------XX--|
Suggest correction new What's this?
You can suggest a correction to this tab. Community and Mods will review your correction and vote to approve or reject it.
comments
print report bad tab
1 comment total.
0 reply
jaystradley 52 wrote on December 2 2008, 09:21 pm

what's there is good

guest
You may want to rate the tab now too:
select rating
Please do not post tabs as comments. Select "correction" instead!