Oops, an error
Loading. Please wait.

The Way We Talk Tab

version 1
version 1

Intro

Whole song

Interactive

7,798 views 1 this week
no commentswrite comment
1 2 3 4 5
2 more votes to show rating
add to favorites
launch autoscroll
font size
0
reset
how to read this tab
guitar tuner
Autoscroll
slow
fast
+/-
esc
set tempo
stop
Help us to improve Ultimate-Guitar.com Take our survey!
×
Author
Difficulty
novice
I finally figured this out! Standard Tuning.

Lead:

e|-----------------------------12--12--12---9--12--9------------------------|
B|--14--14--14--12---12--10-------------------------------------------------|
G|--------------------------------------------------------------------------|
D|--------------------------------------------------------------------------|
A|--------------------------------------------------------------------------|
E|--------------------------------------------------------------------------|


e|--------------------------------------------------------------------------|
B|--14--14--14-12---12--10--9-9-9-10-9--------------------------------------|
G|--------------------------------------------------------------------------|
D|--------------------------------------------------------------------------|
A|--------------------------------------------------------------------------|
E|--------------------------------------------------------------------------|

Basic Rhythm- Play as lead plays. Chord Order- A F# A

e|--------2-----------------------------------------------------------------|
B|-2------2-------2---------------------------------------------------------|
G|-2------2-------2---------------------------------------------------------|
D|-2------4-------2---------------------------------------------------------|
A|-0------4-------0---------------------------------------------------------|
E|--------2-----------------------------------------------------------------|

Any furter questions contact me by aim or email
My name is brandon adkins

AIM-oixecstasyxio
Email-oixecstasyxio@aol.com
Suggest correction
Give kudos to tab author, rate the tab!
1 2 3 4 5
comments
print report bad tab
guest
You may want to rate the tab now too:
select rating
Wanna post a correction for this tab? Suggest correction