Oops, an error
Loading. Please wait.

The Way We Talk Tab

version 1
version 1

Whole song

Interactive

15,599 views 9 this week
4 commentsread comments
1 2 3 4 5
worth learning
x 4
add to favorites
launch autoscroll
font size
0
reset
how to read this tab
guitar tuner
Autoscroll
slow
fast
+/-
esc
set tempo
stop
Help us to improve Ultimate-Guitar.com Take our survey!
×
Author
-------------------------------------------------------------------------------
                             THE WAY WE TALK - The Maine
-------------------------------------------------------------------------------
Tabbed by: NikkoFreako
Email: megadom167@yahoo.com
 
Tuning: Standard

Guitar 1
Intro / Chorus
e|------------------------------12-12---------------------------------------|
B|---14-14-14-12-12-12-10-10-10-------12---12/14\12-------------------------|
G|--------------------------------------------------------------------------|
D|--------------------------------------------------------------------------|
A|--------------------------------------------------------------------------|
E|--------------------------------------------------------------------------|

e|--------------------------------------------------------------------------|
B|---14-14-14-12-12-12-10-10-10-9b10r9--------------------------------------|
G|--------------------------------------------------------------------------|
D|--------------------------------------------------------------------------|
A|--------------------------------------------------------------------------|
E|--------------------------------------------------------------------------|

Verse

e|----------0-2--------------------------------------------------------|
B|---------------2-0-2-------------------------------------------------|
G|------2--------------------2------------------2----------------------|
D|------2----------------4-4---4--4--2--222---4---4--2--222------------|x2
A|------0----------------4-4------4--2--222---4------2--222------------|
E|-----------------------2-2------2--0--000---2------0--000------------|

e|-----------------0-2-------------------------------------------------------|
B|---------------------2-0-2-------------------------------------------------|
G|-----2-2-2-2-2-2-----------------2------------------2----------------------|
D|-----2-2-2-2-2-2-------------4-4---4--4--2--222---4---4--2--222------------|x2
A|-----0-0-0-0-0-0-------------4-4------4--2--222---4------2--222------------|
E|-----------------------------2-2------2--0--000---2------0--000------------|

Pre-Chorus

e|---------0-0-----------0-0------------0-0----------------------------------|
B|---------2-2-----------2-2------------2-2----------------------------------|
G|---------2-2-----------2-2------------2-2----------------------------------|
D|---------2-2-----------2-2------------2-2----------------------------------|
A|---------0-0-----------0-0------------0-0----------------------------------|
E|---------0-0-----------0-0------------0-0----------------------------------|

Breakdown

e|--------------------------xxxxx-------------------------------------------|
B|--------------------------xxxxx-------------------------------------------|
G|-----11--13/14-14--11--13-xxxxx-------------------------------------------|
D|--------------------------xxxxx-------------------------------------------|
A|------9--11-12-12---9--11-xxxxx-------------------------------------------|
E|--------------------------xxxxx-------------------------------------------|

Solo Type Riff

e|-----12-12---------------12-12--------------------------------------------|
B|-----------12-12-14-14---------12-12-14-14b15r14--------------------------|
G|--------------------------------------------------------------------------|
D|--------------------------------------------------------------------------|
A|--------------------------------------------------------------------------|
E|--------------------------------------------------------------------------|

Guitar 2

Intro / Chorus

e|------0--0--0--0--0--0--0--0--0--0--0--0--0--0--0--0----------------------|
B|------x--x--x--x--0--0--0--0--2--2--2--2--0--0--0--0----------------------|
G|------2--2--2--2--2--2--2--2--2--2--2--2--2--2--2--2----------------------|
D|------2--2--2--2--2--2--2--2--2--2--2--2--2--2--2--2----------------------|
A|------0--0--0--0--0--0--0--0--0--0--0--0--0--0--0--0----------------------|
E|------0--0--0--0--0--0--0--0--0--0--0--0--0--0--0--0----------------------|

Verse

e|------------------------------2-2-5-2--0--000---2-2-5-2--0--000-----------|
B|------------------------------2-2-2-2--2--222---2-2-2-2--2--222-----------|
G|------------------------------2-2-2-2--2--222---2-2-2-2--2--222-----------|
D|------------------------------4-4-4-4--2--222---4-4-4-4--2--222-----------|  
A|------------------------------4-4-4-4--0--000---4-4-4-4--0--000-----------|
E|------------------------------2-2-2-2--------------2-2-2-2----------------|

Pre Chorus

e|---------------------------------------------------------------------------|
B|---------------------------------------------------------------------------|
G|---------------------------------------------------------------------------|
D|--------2-------2-------2-------2-------2-------2--------------------------|
A|------2---2---2---2---2---2---2---2---2---2---2---2------------------------|
E|----0-------0-------0-------0-------0-------0-------0----------------------|



| /  slide up
| \  slide down
| h  hammer-on
| p  pull-off
| ~  vibrato
| +  harmonic
| x  Mute note
===============================================================================
Suggest correction
What's this?
You can suggest a correction to this tab. Community and Mods will review your correction and vote to approve or reject it.
comments
print report bad tab
4 comments total. Showing first comments.
0 reply
xcpmusiclover 76 wrote on September 30 2008, 01:38 pm

great. i don't know why anyone has checked it out. it's perfect!!!

0 reply
davidMisfit 15 wrote on November 28 2008, 11:02 pm

yeah its pretty damn good
i always wanted to play this song C:

0 reply
itsnotdefeat 84 wrote on May 7 2009, 05:00 pm

i dont feel comfortable playing the rhythm part of this song.
the lead sounds awesome but i dont think the rhythm sounds right

guest
You may want to rate the tab now too:
select rating
Please do not post tabs as comments. Select "correction" instead!