Oops, an error
Loading. Please wait.

This Is The End Bass Tab

1,035 views 3 this week
no commentswrite comment
1 2 3 4 5
please rate
add to favorites
launch autoscroll
font size
0
reset
guitar tuner
Autoscroll
slow
fast
+/-
esc
set tempo
stop
Help us to improve Ultimate-Guitar.com Take our survey!
×
Contributor
Difficulty
novice
the song is realy easy to learn... well it should be.. haha



"i'm takin', takin'..."
*no bass*

...like i'm doin' something right.
*bass comes in*
E|------------------|
A|------------------|  (2x)
D|--88--44--666-----|
G|---------------44-|


"it made me sick to think about..."
*no bass*

"...sayin' goodbye"
*bass comes in*
E|-------------------------------|
A|-------------------------------|
D|--4--8--6-------4--8--66666666-|
G|-----------44------------------|


CHORUS
"this is the end..."
E|------------------|
A|------------------|  (4x)
D|--88--44--666-----|
G|---------------44-|


"you had me..."
E|---------------------------------|
A|---------------------------------|  (2x)
D|--4--8--66--6~8---4--8--66-6-----|
G|------------------------------44-|

"...now"
E|------------------|
A|------3-6-----5-8-|
D|--4-6-----6-8-----|
G|------------------|


"this is the end..."
E|------------------|
A|------------------|  (4x)
D|--88--44--666-----|
G|---------------44-|


BRIDGE
E|------------------|
A|------3-6-----5-8-|  (2x)
D|--4-6-----6-8-----|
G|------------------|


"love is a luxury..."
*no bass*


"this is the end..."
E|------------------|
A|------------------|  (4x)
D|--88--44--666-----|
G|---------------44-|

"oh this is the end..."
E|------------------|
A|------------------|  (4x)
D|--88--44--666-----|
G|---------------44-|


"...can't hide from me."
E|---------------|
A|---------------|
D|--4--8--666----|
G|-------------4-|


END
comments
We did not receive enough feedback on this tab! Please rate:
print report bad tab
1 2 3 4 5
I want to post or [tab]
guest
You may want to rate the tab now too:
select rating
Please do not post tabs as comments. Select "correction" instead!