Oops, an error
Loading. Please wait.

Time Tab

585 views 1 this week
1 commentread comment
1 2 3 4 5
x 3
add to favorites
launch autoscroll
font size
0
reset
how to read this tab
guitar tuner
Autoscroll
slow
fast
+/-
esc
set tempo
stop
Help us to improve Ultimate-Guitar.com Take our survey!
×
Author
Difficulty
intermediate
INTRO/VERSE
   E5    D#/E5    G5
e|--x------x----------------------|
B|--x------x----------------------|
G|--9(8x)--9(8x)------------------| (2x)[FOR INTRO] (4x) [FOR VERSE]
D|--9------8-------5--------------| 
A|--7------6-------5(8x)----------|
E|--x------x-------3--------------|

*In the verse, he kinda palm mutes the chords in the verse but it's still the same progression.

CHORUS
    Cadd9  G      Em7     Dsus4
e|---3-----3------3-------3---------------------------|
B|---3-----3------3-------3---------------------------|
G|---0-----0(3x)--0-------2---------------------------|
D|---2-----0------2-------0---------------------------|
A|---3-----2------2-------0---------------------------|
E|---x-----3------0-------x---------------------------|

*REPEAT INTRO/VERSE
*REPEAT CHORUS

BRIDGE
     B  A  G  F#  Cadd9
e|-----------------3---------|
B|-----------------3---------|
G|-----------------0---------| (5x)
D|---9--7--5--4----2---------|
A|---9--7--5--4----3---------|
E|---7--5--3--2----x---------|


e|--x------x----------------------|
B|--x------x----------------------|
G|--9(8x)--9(8x)------------------| (2x)
D|--9------8-------5--------------| 
A|--7------6-------5(8x)----------|
E|--x------x-------3--------------|

PALM MUTE 8x

FINAL CHORUS
    Cadd9  G      Em7     Dsus4
e|---3-----3------3-------3---------------------------|
B|---3-----3------3-------3---------------------------|
G|---0-----0(3x)--0-------2---------------------------| (2x)
D|---2-----0------2-------0---------------------------|
A|---3-----2------2-------0---------------------------|
E|---x-----3------0-------x---------------------------|

END ON G
Suggest correction
Give kudos to tab author, rate the tab!
1 2 3 4 5
comments
print report bad tab
1 comment total.
0 reply
AngeloMC213 90 Feb 18, 2013 10:36 AM

On the E5 it's sposed to be 799 (same strings)

guest
You may want to rate the tab now too:
select rating
Wanna post a correction for this tab? Suggest correction