Oops, an error
Loading. Please wait.

Undressing The Words Tab

2,560 views 1 this week
2 commentsread comments
1 2 3 4 5
please rate
add to favorites
launch autoscroll
font size
0
reset
how to read this tab
guitar tuner
Autoscroll
slow
fast
+/-
esc
set tempo
stop
Help us to improve Ultimate-Guitar.com Take our survey!
×
Author
Artist: The Maine
Song: Undressing The Words
Album: Old Demo
Tabber: Matt Florio; myspace.com/mattflorio2
Email: shempashland@yahoo.com

Hey, enjoy it!
if you have any questions.. email me!
have fun... listen to the song while playing it helps.

Intro
guitar 1
e----------------|
b----------------|
g----6--8--4-----|
d-4--6--8--4-----|
a-4--4--6--2-----|
e-2--------------|

guitar 2
e---------------------|
b---------7-6-4-------|
g-------6-------6-3-6-|
d-4-3h4---------------|
a---------------------|
e---------------------|

Verse
same as guitar one above... palm mute

guitar 2
e-66-6--77-7-----|
b-77-7--77-7-----|
g-66-6--66-6-----|
d----------------|
a----------------|
e----------------|

guitar 2 somewhere in background before prechorus
e------6---------|
b--7-----7-------|
g----6-----------|
d----------------|
a----------------|
e----------------|
"youre attentive"

PreChorus
e------------------|
b------------------|
g----4----6--------|
d--4-4--4-6--------|
a--4-2--4-4--------|
e--2----2----------|

Chorus is the same as intro

Bridge
guitar 1 pm
e-----------------|
b-----------------|
g----4-----4------|
d-4--4--4--4------|
a-4--2--4--2------|
e-2-----2---------|
"so tell me now..."

guitar 2
e--------------|
b------7-6-----|
g----6-----6---|
d-3h4----------|
a--------------|
e--------------|

Outro

guitar 1
e-------------------|
b-------------------|
g-------------------|
d-4---4----4----4---|
a-4---4----4----4---|
e-2---2----2----2---|

guitar 2
e----------------------|
b----------7-6-4-------|
g--------6-------6-3-6-|
d--4-3h4---------------|
a----------------------|
e----------------------|
Suggest correction
What's this?
You can suggest a correction to this tab. Community and Mods will review your correction and vote to approve or reject it.
comments
We did not receive enough feedback on this tab! Please rate:
print report bad tab
1 2 3 4 5
2 comments total.
-2 reply
itsnotdefeat 84 wrote on March 11 2009, 04:53 pm

im pretty sure this song is in standard tuning and guitar 1 should be:

guitar 1
e----------------|
b----------------|
g----6--8--4-----|
d-4--6--8--4-----|
a-4--4--6--2-----|
e-2--------------|

0 reply
CHEEZFREEK57 107 wrote on May 9 2011, 12:52 pm

The main riff sounds better as:

e-------------------------------------|
b---------------7-6-4-----------------|
g-----------3-6-------6-3-6-----------|
d---4-4-4-6---------------------------|
a-------------------------------------|
e-------------------------------------|

guest
You may want to rate the tab now too:
select rating
Please do not post tabs as comments. Select "correction" instead!