Oops, an error
Loading. Please wait.

When Im At Home Chords

6,111 views 6 this week
1 commentread comment
1 2 3 4 5
please rate
add to favorites
launch autoscroll
font size
0
reset
transpose
0
reset
simplify chords
display chords
guitar tuner
Autoscroll
slow
fast
+/-
esc
set tempo
stop
Help us to improve Ultimate-Guitar.com Take our survey!
×
Author
Difficulty
novice
When I'm At Home
Standard tuning

Verse:
   Em        G/D    C
e|----------------------------------|
B|-----------3333--1111-------------|
G|-----------4444--0000-------------|
D|-22222222--5555--2222-------------|
A|-22222222--5555--3333-------------|
E|----------------------------------|

I will collapse
So let's make this moment last
I am alone
No, not because I'm lost
Because I'm found
And I like the way it sounds when I'm at home
Don't say that I can't do it on my own

Bridge: G/D Em

No oh
No oh oh
No oh oh

Riff:
D|-----------5----------5----------|
A|------5-7-----7--5-7-----7-------|
E|--5-7----------------------------|


Verse 2: Em  G/D  C

Then you did collide
And broke through the other side
Straight through my heart
You're the ember to my flame when it get's dark
And I love the way it feels when I'm with you
And I cannot find the words, no

G/D   Em
No    oh
G/D   Em
No    oh oh
G/D   Em
No    oh oh

Chorus: G C9 G D/F#

G               C9  G       D/F#
Two-hundred thirty paces to my place,
G     C9           D/F#
Oh I should not be alone
G               C9         G       D/F#
I'll burn this house down, no need for walls now
Em                  C
When I'm with you, I'm at home

Repeat the riff. There are other things here but I couldn't figure out.

G/D  Em
Oh   oh
G/D  Em
Oh   oh oh
G/D  Em
Oh   oh oh


G               C9  G       D/F#
Two-hundred thirty paces to my place,
G     C9           D/F#
Oh I should not be alone
G                C9        G       D/F#
I'll burn this house down, no need for walls now
Em                         C                      G/D
Because when I'm with you, I feel like I'm right at home

Two-hundred thirty paces to my place,
Oh I should not be alone
I'll burn this house down, no need for walls now
Em             C   G/D     G
When I'm with you, I'm at home
G    C9    G    C9
Hooooome, hoooooOOme
G       C9
I'm at home
G   C9   G    C9
Hoooome, hooooome
        G
I'm at home
Suggest correction
Give kudos to tab author, rate the tab!
1 2 3 4 5
comments
print report bad tab
1 comment total.
0 reply
AngeloMC213 90 wrote on February 22 2013, 08:53 pm

This is another way Jared plays that riff.
e|-----------------------------------------------------------------|
B|-----------------------------------------------------------------|
G|----------0----------0-------------------------------------------|
D|-----0h2-----2--0h2----2-----------------------------------------|
A|----0h2----------------------------------------------------------|
E|-----------------------------------------------------------------|

guest
You may want to rate the tab now too:
select rating
Please do not post tabs as comments. Select "correction" instead!