Oops, an error
Loading. Please wait.

Whoever She Is Tab

version 1
version 1

Solo

Interactive

3,781 views 1 this week
1 commentread comment
1 2 3 4 5
please rate
add to favorites
launch autoscroll
font size
0
reset
how to read this tab
guitar tuner
Autoscroll
slow
fast
+/-
esc
set tempo
stop
Help us to improve Ultimate-Guitar.com Take our survey!
×
Difficulty
novice
This is the piano backing that first comes in around 1:12 and is also played in the 
near the end.


e ---------------------------------|
B -------15-12--15-10--12-8-7------|
G -11-12---------------------------|
D ---------------------------------|  Repeat 2x then use as needed in end.
A ---------------------------------|
E ---------------------------------|
Suggest correction
Give kudos to tab author, rate the tab!
1 2 3 4 5
comments
print report bad tab
1 comment total.
+1 reply
SK8nBASS 1,851 wrote on September 1 2012, 07:43 pm

E|--------10-------10-------------|
B|-----------12-------10----12----|
G|--11-12----------------------12-| x2
D|--------------------------------|
A|--------------------------------|
E|--------------------------------|

guest
You may want to rate the tab now too:
select rating
Wanna post a correction for this tab? Suggest correction