Oops, an error
Loading. Please wait.

California Dreaming Tab

version 3
version 3

Solo

  • Note for note exact to the original flute solo. Ar... Show more

Whole song

Interactive

49 views 6 this week
no commentswrite comment
1 2 3 4 5
3 more votes to show rating
add to favorites
launch autoscroll
font size
0
reset
how to read this tab
guitar tuner
Autoscroll
slow
fast
+/-
esc
set tempo
stop
Help us to improve Ultimate-Guitar.com Take our survey!
×
Author
Difficulty
novice
About this tab version
Note for note exact to the original flute solo. Arranged for easy guitar playing. Was this info helpful? Yes No
The original solo is played on a flute. This is an arrangement for guitar

e|---------------------------------------------------------------------------|
B|---------------------------------------------------11--11\10---------------|
G|10---9-10-12---10\9/10---9-10-12-10----------------------------------------|
D|------------------------------------12-10--11--12--------------------------|
A|---------------------------------------------------------------------------|
E|---------------------------------------------------------------------------|

e|---12-17-15b-13-15--13-15b-13-15--13-17-17-17-15----15-17-17-17-20-17-15-17|
B|14-----------------------------------------------17------------------------|
G|---------------------------------------------------------------------------|
D|---------------------------------------------------------------------------|
A|---------------------------------------------------------------------------|
E|---------------------------------------------------------------------------|

e|17\15--13-15b--13-15b-15--13-15-15/17-17-17-15-15-12-12-9-9-6-6-5-5--------|
B|---------------------------------------------------------------------------|
G|---------------------------------------------------------------------------|
D|---------------------------------------------------------------------------|
A|---------------------------------------------------------------------------|
E|---------------------------------------------------------------------------|


************************************

| b   Bend
| /   Slide up
| \   Slide down

************************************
Suggest correction
Give kudos to tab author, rate the tab!
1 2 3 4 5
comments
print report bad tab
guest
You may want to rate the tab now too:
select rating
Wanna post a correction for this tab? Suggest correction