Oops, an error
Loading. Please wait.

California Dreaming Bass Tab

version 2
version 2

Whole song

Interactive

1,776 views 3 this week
1 commentread comment
1 2 3 4 5
please rate
add to favorites
launch autoscroll
font size
0
reset
guitar tuner
Tab Pro tools
  • play this tab
  • loop segment
  • change instrument
  • show fretboard
  • metronome
×
Best way to learn
"California Dreaming"
Autoscroll
slow
fast
+/-
esc
set tempo
stop
Contributor
Difficulty
intermediate
Song written by John & Michelle Phillips, recorded by
The Mamas & Papas in 1965 reached number 23 in 1966
in the UK and again at number 9 in 1997
Tab by bass50611. Think its just about right to the
original recording.  Any comments bass254@btinternet.com

Intro:  No bass on Intro

Verse:
G|--------------------------------------------------------------|
D|--------------------------------------------------------------|
A|-4---4-2---2-------------------------77----44--00-------------|
E|------------5---5-7---7-4-44---44-55----44--------4-4-4-4-4-4-|

G|--------------------------------------------------------------|
D|----6----------------------------------------6----------------|
A|-6/8-8-6-4---4-2---2----------------------6/8-8-6-44-22-00-22-|
E|--------------------5---5-7---7-4-44---44---------------------|

G|--------------------|
D|---------------6----|
A|------------6/8-8-6-|
E|-4-4-4-4-4-4--------|

Verse 2:
G|--------------------------------------------------------------|
D|--------------------------------------------------------------|
A|-4---4-2---2-------------------------77----44--00-------------|
E|------------5---5-7---7-4-44---44-55----44--------4-4-4-4-4-4-|

G|--------------------------------------------------------------|
D|----6----------------------------------------6----------------|
A|-6/8-8-6-4---4-2---2----------------------6/8-8-6-44-22-00-22-|
E|--------------------5---5-7---7-4-44---44---------------------|

G|-----------------|
D|-----------------|
A|-----------------|
E|-4-4-4-4-4-4-4-4-|


Repeat Verse:

Solo:
G|-------------------------------------------------------------|
D|-------------------------------------------------------------|
A|-4-44-4-44-4-44-4-4---4-44-4-44-4-44---0-0---7-7-----4-4-----|
E|-------------------------------------------------4-4-----5-5-|

G|-------------------------------------------------------|
D|-------------------------------------------------------|
A|-----------------4-4---2-2---0-0---2-2-----------------|
E|-4-4-4-4-4-4-4-4-----------------------4-4-4-4-4-4-4-4-|

G|---------------------------------------|
D|---------------------------------------|
A|-4-4---2-2---0-0---2-2-----------------|
E|-----------------------4-4-4-4-4-4-4-4-|

Last Verse:
G|--------------------------------------------------------------|
D|--------------------------------------------------------------|
A|-4---4-2---2-------------------------77----44--00-------------|
E|------------5---5-7---7-4-44---44-55----44--------4-4-4-4-4-4-|

G|----------------------------------------------|
D|----6-----------------------------------------|
A|-6/8-8-6-4---4-2---2--------------------------|
E|--------------------5---5-7---7-4-44---4-44-4-|

Outro: (PLAYING QUAVERS PLAY THIS x3)
G|---------------------------|
D|---------------------------|
A|-4444---2222---0000---2222-|
E|---------------------------|

G|---------------------------|
D|---------------------------|
A|-00000000---00000000-----4-|
E|---------------------------|
comments
We did not receive enough feedback on this tab! Please rate:
print report bad tab
1 2 3 4 5
1 comment total.
0 reply
TFKfan75 wrote on April 21 2014, 11:23 pm

Hey, this is a great tab! I'm just wondering if it would be a 7 instead of an 8 in that little riffy slide thing because the suggested chord is a C#m. So I would think the third of that would be an E and not a F. Just a thought. Great tab though! :)

I want to post or [tab]
guest
You may want to rate the tab now too:
select rating
Please do not post tabs as comments. Select "correction" instead!