Oops, an error
Loading. Please wait.

California Dreaming Tab

version 2
version 2

Whole song

Interactive

185,406 views 12 this week
4 commentsread comments
1 2 3 4 5
worth learning
x 5
add to favorites
launch autoscroll
font size
0
reset
how to read this tab
guitar tuner
Tab Pro tools
  • play this tab
  • loop segment
  • change instrument
  • show fretboard
  • metronome
×
Best way to learn
"California Dreaming"
Autoscroll
slow
fast
+/-
esc
set tempo
stop
Contributor
I know this might be hard to read because of the canon but by listening to the track hopefully you can understand it!
Any comments, tips, abuse, hate mail.....

Dm     (000231)
Bb     (xx3331)
A7sus4 (002030)
C      (032010)
A7     (002020)
F      (133211)
Gm6    (020030)

--------------------------------------------------------
--------------------------------------------------------
--------------------------------------------------------
----0------0-----5-3-2---------------------------------(x2)
-0------7-----------------------------------------------
--------------------------------------------------------


------------------------0-------------------------------
---------------------------3--1-------------------------
-----------0--2--0--------------------------------------
------0-------------------------------------------------
--------------------------------------------------------
--------------------------------------------------------

Then strum A7sus4


Verse:
(Dm)All the (C)leaves are brown(Bb)

and the (C)sky is grey (A7sus4) and the sky is grey(A7)

(Bb) Ive been for a.. (F) ive been (A7) for a walk

(Dm) on a (Bb)winters day  (A) on a (Gm6)winters day (A7)

Id been safe and..(Dm) Id be (C) safe and warm(Bb)

If I (C)was in LA (A7sus4) If i was in LA

(A7) Calfornia.. (Dm) Cal-i-(C)for-nia dream-(Bb)-in

on (C)  such a winters (A7sus4)daaaay

Stopped into a (Dm) church (C)

(Bb) I passed a-(C)long the (A7sus4)way

(A7) Oh, I (Bb) got down on my (F) knees  (A7)

(Dm) And I pre(Bb)tended to pray (A9sus4)

(A7) You know the Preeacher likes the (Dm) cold (c)

(Bb) He knows (C) Im gonna (A7sus4) stay  (A7)

California (Dm)dreamin  (C)  (Bb)

on(C)such a winters (A7sus4) day

Middle 8: Dm (for 3 bars) Bb F A7 Dm Bb A7sus4

Verse 2:
All the leaves are brown and the sky is grey
Ive been for a walk on such a winters day 
If i didnt tell her I could leave today

Finish the repeated "california dreamin on such a winters day with: Dm C Bb C (x2) Bbmaj7 (daaaay
comments
print report bad tab
4 comments total. Showing first comments.
0 reply
WellWellMrBond wrote on October 5 2002, 12:00 am

Umm yeah, sorry but the introduction is wrong. It's way to short.

0 reply
Fifth Rider wrote on October 12 2002, 12:00 am

I havent been able to find one correct version of the intro for this song on the net so far. This is the first bit of it, I figured it out just now. Ill work on the rest of it later.

E--------0-----3--1--0----------5-6-5-3-1
B-----3---------------------3------------
G-2----------2-----------2---------------

Ill get a web site up and running for tabs that are actually right, coz it frustrating when someone says 100% correct, then it turns out to be wrong. Im not putting any wrong tabs on my web page. Email me at painted_angel@hotmail.com for details.

0 reply
Fifth Rider wrote on October 12 2002, 12:00 am

Sorry, my last one was a bit squashed up, take 2.

E--------0------3--1--0---------5--6--5--3--1
B-----3--------------------3------------
G-2----------2-----------2---------------

I want to post or [tab]
guest
You may want to rate the tab now too:
select rating
Please do not post tabs as comments. Select "correction" instead!