Oops, an error
Loading. Please wait.

Dedicated To The One I Love bass

version 1
version 1

Whole song

Interactive

100 views 3 this week
no commentswrite comment
1 2 3 4 5
3 more votes to show rating
add to favorites
×
Save as Personal and add changes to this tab that will be seen only by you. Learn more ›
×
You can save this tab as Personal to edit and correct it or add notes. All changes will be seen only by you. Learn more »
launch autoscroll
font size
0
reset
guitar tuner
edit
Autoscroll
slow
fast
+/-
esc
set tempo
stop
DEDICATED TO THE ONE I LOVE (Bassline)

As recorded by The Mams & The Papas
(From the 1967 Album DELIVER)

Words and Music by Ralph Bass & Lowman Pauling
Arranged by The Mamas & The Papas

Transcribed by Slowhand


Gtr I (E A D G) - 'Joe Osborn - Bass'


 Intro                          1st Verse
  Q=100
 12/8
  Gtr I
  W              W               W              W
|--------------|--------------||--------------|------|
|--------------|--------------||--------------|------|
|--------------|--------------||--------------|------|
|--------------|--------------||--------------|------|


  W              W              W              W
|--------------|--------------|--------------|------|
|--------------|--------------|--------------|------|
|--------------|--------------|--------------|------|
|--------------|--------------|--------------|------|


                                       2nd & 4th Verses
                                     $
                                                    2:3 2:3
  W              Q.   Q.   Q.   Q.      Q.   +Q   E E E E E
|--------------|---------------------||---------------------|
|--------------|---------------------||-5----(5)----5-7-7---|
|--------------|------5----7----8----||-----------5---------|
|--------------|---------------------||-------------------5-|


                                     2:3 2:3
  Q.   Q  E Q.   E E E   Q.   +Q   E E E E E   Q.   Q  E Q.   Q  E
|----------------------|---------------------|---------------------|
|----------------------|-5----(5)----5-7-7---|---------7-----------|
|-----------5----5-7-8-|-----------5---------|-5---------5-------5-|
|-8-------8------------|-------------------5-|---------------------|


                                             Bridge
                               To Coda
  Q.   E E E Q.   E E E   H.      +H.         Q.   +E  E E Q.   +E  E E
|-------------------7---|------------------||-----------------------7----|
|--------8-6-5----5---5-|------------------||-5----(5)-----5----(5)------|
|-6----6----------------|-5-------(5)------||------------5------------5--|
|-----------------------|------------------||----------------------------|


  Q.   +Q   E Q.   +E  E E
|----------------------7---|
|-5----(5)----5----(5)-----|
|-----------5------------5-|
|--------------------------|


  Q.   +E  E E Q.   +E  E E   E Q  E E E E Q  E E E
|----------7------------7---|-------------------7----|
|-5----(5)-----5----(5)-----|-5----5-----5----5------|
|------------5------------5-|----------5----------5--|
|---------------------------|------------------------|


  E E E Q.   E E E E Q    E E E E E E E E E E E E   E E E E E E E E E E E E
|-----------------------|-------------------------|--------------------------|
|-5-5-5-5----5-5-5-5-5--|-5-5-5-5-5-5-5-5-5-5-5-5-|-----7-----7--------------|
|-----------------------|-------------------------|--------------------------|
|-----------------------|-------------------------|-5-5---5-5---5-5-5-5-5-5--|


                                                      3rd Verse
                                                                   2:3 2:3
  E E E E E E E E E E E E   E E E E E E E E E E E E    Q.   +Q   E E E E E
|-------------------------|-------------------------||---------------------|
|-------------------------|-------------------------||-5----(5)----5-7-7---|
|-5-5-5-5-5-5-5-5-5-5-5-5-|-5-5-5-5-5-5-5-5-5-5-5-5-||-----------5---------|
|-------------------------|-------------------------||-------------------5-|


                                     2:3 2:3
  Q.   Q  E Q.   E E E   Q.   +Q   E E E E E   Q.   Q  E Q.   Q  E
|----------------------|---------------------|---------------------|
|----------------------|-5----(5)----5-7-7---|---------7-----------|
|-----------5----5-7-8-|-----------5---------|-5---------5-------5-|
|-8-------8------------|-------------------5-|---------------------|


                                             Bridge
  Q.   +E  E E Q.   Q  E   H.      H.         Q.   Q.   Q.   Q.
|------------------------|-----------------||----------------------|
|--------------7-------7-|-----------------||-9---------5----------|
|-6----(6)---6-----------|-5-------5-------||------7---------------|
|------------------------|-----------------||----------------8-----|


  Q.   Q  E Q  E Q  E   Q.   Q  E Q.   Q.     E E E E E E E E E E E E
|---------------------|---------------------|--------------------------|
|---------------------|---------------------|--------------------------|
|---------------------|-6----6----6----6----|-5-5-5-5-5-5-5-5-5-5-5-5--|
|-7----8----7----7----|---------6-----------|--------------------------|


                      Outro
   D.S. al Coda     &
  E Q  Q.   H.         Q.   +E  E E Q.   +E  E E   Q.   +E  E E Q.   +E  E E
|-------------------||---------------------------|----------------------------|
|-------------------||---------------------------|----------------------------|
|-5-----------------||-7----(7)---7-7----(7)---5-|----------------------------|
|-------------------||---------------------------|-8----(8)---8-8----(8)---7--|


  Q.   +Q   E Q.   +E  E E   W.              +W.
|--------------------------|---------------|--------*|
|-------------7----(7)---7-|-5-------------|-(5)----*|
|-----------7----------7---|---------------|--------*|
|-5----(5)-----------------|---------------|--------*|


Duration Legend
---------------
W - whole; H - half; Q - quarter; E - 8th; S - 16th; T - 32nd; X - 64th; a - acciaccatura
+ - note tied to previous; . - note dotted; .. - note double dotted
Uncapitalized letters represent notes that are staccato (1/2 duration)
Irregular groupings are notated above the duration line
Duration letters will always appear directly above the note/fret number it represents the
duration for.  Duration letters with no fret number below them represent rests.  Multi-
bar rests are notated in the form Wxn, where n is the number of bars to rest for.  Low
melody durations appear below the staff

Tablature Legend
----------------
 h   - hammer-on
 p   - pull-off
 b   - bend
 pb  - pre-bend
 r   - bend release (if no number after the r, then release immediately)
 /\  - slide into or out of (from/to "nowhere")
 s   - legato slide
 S   - shift slide
  - natural harmonic
[n]  - artificial harmonic
n(n) - tapped harmonic
 ~   - vibrato
 tr  - trill
 T   - tap
 TP  - trem. picking
 PM  - palm muting
\n/  - tremolo bar dip; n = amount to dip
 \n  - tremolo bar down
 n/  - tremolo bar up
/n\  - tremolo bar inverted dip
 =   - hold bend; also acts as connecting device for hammers/pulls
 <>  - volume swell (louder/softer)
 x   - on rhythm slash represents muted slash
 o   - on rhythm slash represents single note slash

Misc Legend
-----------
 |  - bar
||  - double bar
||o - repeat start
o|| - repeat end
*|  - double bar (ending)
 :  - bar (freetime)
 $  - Segno
 &  - Coda
Tempo markers -  = BPM(8/16=s8/s16), where s8 = swing 8ths, s16 = swing 16ths



While I'm far away from you, my baby,
I know it's hard for you, my baby,
Because it's hard for me, my baby,
And the darkest hour is just before dawn -

Each night before you go to bed, my baby,
Whisper a little prayer for me my baby.
And tell all the stars above
This is dedicated to the one I love.

Love can never be exactly like we want it to be.
I could be satisfied knowing you love me.
There's one thing I want you to do especially for me -
And it's something that everybody needs.

While I'm far away from you, my baby,
Whisper a little prayer for me, my baby,
Because it's hard for me, my baby,
And the darkest hour is just before dawn.

If there's one thing I want you to do especially for me
Then it's something that everybody needs...

Each night before you go to bed, my baby,
Whisper a little prayer for me, my baby,
And tell all the stars above -
This is dedicated to the one I love.
This is dedicated (to the one I love)
This is dedicated to the one I love
This is dedicated (to the one I love)
This is dedicated... 
Suggest correction
Creating personal tab
Creating personal tab
You can edit any tab online and save it as your Personal.

You can edit, replace or remove any tab part or add personal notes – all changes will be seen only by you.

Personal tabs can be accessed anytime from any device, even offline.
Learn more »
Give kudos to tab author, rate the tab!
1 2 3 4 5
comments
print report bad tab
guest
You may want to rate the tab now too:
select rating
Wanna post a correction for this tab? Suggest correction