Oops, an error
Loading. Please wait.

Dedicated To The One I Love Bass Tab

version 2
version 2

Whole song

Interactive

16 views 16 this week
no commentswrite comment
1 2 3 4 5
3 more votes to show rating
add to favorites
launch autoscroll
font size
0
reset
guitar tuner
Autoscroll
slow
fast
+/-
esc
set tempo
stop
Help us to improve Ultimate-Guitar.com Take our survey!
×
Author
Difficulty
novice
About this tab version
More accurate than the other. Was this info helpful? Yes No
Tabbed by: 6METAL6BASSIST6
E-mail: petergriffinav@gmail.com

Tuning: EADG

0:32

G|------------------------------------|
D|------------------------4-----------|
A|5-----------7-----------------------|
E|------------------------------------|

G|------------------------------------------------------------------------------------------------|
D|5-----------------------5-----------5-------------------------------------------------------4---|
A|--------------------5---------------------2-----3-------------------3---5-----------5---7-------|
E|------------------------------------------------------------------------------------------------|

G|------------------------------------------------------------------------------------------------|
D|5-----------------------5-----------5-------------------------------7---------------------------|
A|--------------------5---------------------2-----5-----------------------5-------------------5---|
E|------------------------------------------------------------------------------------------------|

G|----------------------------------------7-------------------------------------------------------|
D|----------------8---6---5-----------5-------5---------------------------------------------------|
A|6-----------6-----------------------------------5-----------------------------------------------|
E|------------------------------------------------------------------------------------------------|

0:56

G|----------------------------------------7-----------------------------------------------7-------|
D|5-----------------------5-----------------------5-----------------------5-----------------------|
A|--------------------5-----------------------5-----------------------5-----------------------5---|
E|------------------------------------------------------------------------------------------------|

G|----------------------------------------7-----------------------------------------------7-------|
D|5-----------5-----------5-----------5-----------5-----------5-----------5-----------5-----------|
A|--------------------5-----------------------5-----------------------5-----------------------5---|
E|------------------------------------------------------------------------------------------------|

1:09

G|------------------------------------------------------------------------------------------------|
D|5---5---5---5---5---5---5---5---5---5---5---5---5---5---5---5---5---5---5---5---5---5---5---5---|
A|------------------------------------------------------------------------------------------------|
E|------------------------------------------------------------------------------------------------|

G|------------------------------------------------------------------------------------------------|
D|7---7---7---7---7---7---7---7---7---7---7---7---------------------------------------------------|
A|------------------------------------------------5---5---5---5---5---5---5---5---5---5---5---5---|
E|------------------------------------------------------------------------------------------------|

G|------------------------------------------------|
D|------------------------------------------------|
A|5---5---5---5---5---5---5---5---5---5---5---5---|
E|------------------------------------------------|

1:27

G|------------------------------------------------------------------------------------------------|
D|5-----------5-----------5-----------5-------------------------------------------------------4---|
A|--------------------5---------------------2-----3-------------------3---5-----------5---7-------|
E|------------------------------------------------------------------------------------------------|

G|------------------------------------------------------------------------------------------------|
D|5-----------------------5-----------5-------------------------------7---------------------------|
A|--------------------5---------------------2-----5-----------------------5-------------------5---|
E|------------------------------------------------------------------------------------------------|

G|------------------------------------------------------------------------------------------------|
D|------------------------7-------------------7---------------------------------------------------|
A|7-------------------7---------------------------5-----------------------5-----------------------|
E|------------------------------------------------------------------------------------------------|

1:47

G|----------------------------------------7-----------------------------------------------7-------|
D|5-----------5-----------5-----------5-----------5-----------5-----------5-----------5-----------|
A|--------------------5-----------------------5-----------------------5-----------------------5---|
E|------------------------------------------------------------------------------------------------|

G|----------------------------------------7-------------------------------------------------------|
D|5-----------5-----------5-----------5-----------5-------5---5-------5---5-------5---5-------5---|
A|--------------------5-----------------------5-------5-----------5-----------5-----------5-------|
E|------------------------------------------------------------------------------------------------|

2:01

G|------------------------------------------------------------------------------------------------|
D|------------2-----------5-----------------------------------------------------------------------|
A|2-----------------------------------3-----------2-----------3-----------2-----------2-----------|
E|------------------------------------------------------------------------------------------------|

G|------------------------------------------------------------------------------------------------|
D|------------------------------------------------------------------------------------------------|
A|6-----------6-----------6-----------6-----------5---5---5---5---5---5---5---5---5---5---5---5---|
E|--------------------6---------------------------------------------------------------------------|

G|------------------------------------------------|
D|------------------------------------------------|
A|5-----------------------------------------------|
E|------------------------------------------------|

2:19

G|------------------------------------------------------------------------------------------------|
D|5-----------------------5-----------5-------------------------------------------------------4---|
A|--------------------5---------------------2-----3-------------------3---5-----------5---7-------|
E|------------------------------------------------------------------------------------------------|

G|------------------------------------------------------------------------------------------------|
D|5-----------------------5-----------5-----------------------------------------------------------|
A|--------------------5---------------------2-----5-------------------5---5-------------------5---|
E|------------------------------------------------------------------------------------------------|

G|----------------------------------------7-------------------------------------------------------|
D|----------------8---6---5-----------5-------5---------------------------------------------------|
A|6-----------6-----------------------------------5-----------------------------------------------|
E|------------------------------------------------------------------------------------------------|

2:40

G|------------------------------------------------------------------------------------------------|
D|------------------------------------------------------------------------------------------------|
A|7-------------------7---7-------------------5---3-------------------3---3-------------------2---|
E|------------------------------------------------------------------------------------------------|

G|------------------------------------------------------------------------------------------------|
D|------------------------7-------------------7---5-----------------------------------------------|
A|--------------------7-------------------7-------------------------------------------------------|
E|5-----------------------------------------------------------------------------------------------|
Suggest correction
Give kudos to tab author, rate the tab!
1 2 3 4 5
comments
print report bad tab
guest
You may want to rate the tab now too:
select rating
Wanna post a correction for this tab? Suggest correction