Oops, an error
Loading. Please wait.

Even If I Could bass

58 views 3 this week
no commentswrite comment
1 2 3 4 5
3 more votes to show rating
add to favorites
×
Save as Personal and add changes to this tab that will be seen only by you. Learn more ›
×
You can save this tab as Personal to edit and correct it or add notes. All changes will be seen only by you. Learn more »
launch autoscroll
font size
0
reset
guitar tuner
edit
Autoscroll
slow
fast
+/-
esc
set tempo
stop
Author
Difficulty
Tabbed by: 6METAL6BASSIST6
E-mail: petergriffinav@gmail.com

Tuning: EADG

G|--------------------------------------------------------|
D|5-----------4-------------------------------------------|
A|------------------------2-------------------------------|
E|--------------------------------------------------------|

G|--------------------------------------------------------|
D|4-----------------------2-------------------------------|
A|------------2-------------------------------------------|
E|--------------------------------------------------------|

G|----------------------------------------------------------------|
D|2-------2-------2-------2-------2---2---2---2---2---2---2---4---|
A|----------------------------------------------------------------|
E|----------------------------------------------------------------|

0:12

G|--------------------------------------------------------------------------------|
D|5-------5---------------5-------4-----------------------4-----------------------|
A|----------------5---5-------5---------------2-----------------------2-----------|
E|--------------------------------------------------------------------------------|

G|----------------------------------------------------------------|
D|5-------5-------4-------4-------2-------2-------2-------2---4---|
A|--------------------------------------------2-------------------|
E|----------------------------------------------------------------|

G|--------------------------------------------------------------------------------|
D|5-------5-------5-------5-------4-----------------------4-----------------------|
A|------------5-------------------------------2-----------------------2-----------|
E|--------------------------------------------------------------------------------|

G|----------------------------------------------------------------|
D|5-------5-------4-------4-------2-------2-------2-------2-------|
A|--------------------------------------------2---------------2---|
E|----------------------------------------------------------------|

G|--------------------------------|
D|2---2---2---2---2---2---2---4---|
A|--------------------------------|
E|--------------------------------|

0:32

G|----------------------------------------------------------------|
D|5-------5-------------5-5---4---2-------2-------------2-2---4---|
A|----------------5-------------------------------2---------------|
E|----------------------------------------------------------------|

G|----------------------------------------------------------------|
D|------------------------4-----------------------------5-5---4---|
A|2-------2-------2-----2-----2---3-------3-------3---------------|
E|----------------------------------------------------------------|

G|----------------------------------------------------------------|
D|2-------2-------2-------2-------2-------2-------2-------2-----/-|
A|----------------------------2-----------------------------------|
E|----------------------------------------------------------------|

G|----------------------------------------------------------------|
D|7-------7---------------7---6---5-------5-------5-------5-------|
A|----------------7---7---------------------------------------5---|
E|----------------------------------------------------------------|

G|----------------------------------------------------------------|
D|5-------------------------------------------5---7---5---4---5---|
A|----------------------------------------------------------------|
E|----------------------------------------------------------------|

0:51

G|--------------------------------------------------------------------------------|
D|2-------2---------------2-------4-----------------------4-----------------------|
A|----------------2---2-----------------------2-----------------------2-----------|
E|--------------------------------------------------------------------------------|

G|----------------------------------------------------------------|
D|5-------5-------4-------4-------2-------2-------2-------2---4---|
A|--------------------------------------------2-------------------|
E|----------------------------------------------------------------|

G|--------------------------------------------------------------------------------|
D|5-------5---------------5-------4-----------------------4-----------------------|
A|----------------5---------------------------2-----------------------2-----------|
E|--------------------------------------------------------------------------------|

G|----------------------------------------------------------------|
D|5-------5-------4-------4-------2-------2-------2-------2-------|
A|--------------------------------------------2---------------2---|
E|----------------------------------------------------------------|

G|--------------------------------|
D|2-------2---2---2---2---2---4---|
A|--------------------------------|
E|--------------------------------|

1:10

G|----------------------------------------------------------------|
D|5-------5-------------5-5---4---2-------2-------------2-2---4---|
A|----------------5-------------------------------2---------------|
E|----------------------------------------------------------------|

G|----------------------------------------------------------------|
D|------------------------4-----------------------------5-5---4---|
A|2-------2-------2-----2-----2---3-------3-------3---------------|
E|----------------------------------------------------------------|

G|----------------------------------------------------------------|
D|2-------2-------2-------2-------2-------2-------2-------2-----/-|
A|----------------------------2-----------------------------------|
E|----------------------------------------------------------------|

G|----------------------------------------------------------------|
D|7-------7-------7-------7---6---5-------5-------5-------5-------|
A|--------------------7---------------------------------------5---|
E|----------------------------------------------------------------|

G|----------------------------------------------------------------|
D|5-------------------------------------------5---7---5---4---5---|
A|----------------------------------------------------------------|
E|----------------------------------------------------------------|

1:29

G|--------------------------------------------------------------------------------|
D|2-------2---2-----------2-------4-----------------------4-----------------------|
A|----------------2---------------------------2-----------------------2-----------|
E|--------------------------------------------------------------------------------|

G|----------------------------------------------------------------|
D|5-------5-------4-------4-------2-------2-------2-------2---4---|
A|--------------------------------------------2-------------------|
E|----------------------------------------------------------------|

G|--------------------------------------------------------------------------------|
D|5-------5---------------5-------4-----------------------4-----------------------|
A|----------------5---------------------------2-----------------------2-----------|
E|--------------------------------------------------------------------------------|

G|------------------------------------------------------------------------------------------------|
D|4-----------------------4-------4---------------4-------4---------------------------------------|
A|------------2---------------------------2-------------------2-----------------------2-----------|
E|------------------------------------------------------------------------2-----------------------|

G|----------------------------------------------------------------|
D|5-------5-------4-------4-------2-------2-------2-------2---4---|
A|--------------------------------------------2-------------------|
E|----------------------------------------------------------------|

G|----------------------------------------------------------------5-------------------------------|
D|5-------5-------4-------4-----------------------------------5-----------------------------------|
A|--------------------------------3-----------3---3---------------------------3---3-------3-------|
E|------------------------------------------------------------------------------------------------|

1:57

G|--------------------------------------------------------|
D|5-----------4-------------------------------------------|
A|------------------------2-------------------------------|
E|--------------------------------------------------------|

G|--------------------------------------------------------|
D|4-----------------------2-------------------------------|
A|------------2-------------------------------------------|
E|--------------------------------------------------------|

G|----------------------------------------------------------------|
D|2---2---2---2---2---2---2---2---2---2---2---2---2---2---2---2---| until fadeout.
A|----------------------------------------------------------------|
E|----------------------------------------------------------------|
Suggest correction
Creating personal tab
Creating personal tab
You can edit any tab online and save it as your Personal.

You can edit, replace or remove any tab part or add personal notes – all changes will be seen only by you.

Personal tabs can be accessed anytime from any device, even offline.
Learn more »
Give kudos to tab author, rate the tab!
1 2 3 4 5
comments
print report bad tab
guest
You may want to rate the tab now too:
select rating
Wanna post a correction for this tab? Suggest correction