Oops, an error
Loading. Please wait.

Fantastic Four Bass Tab

13 views 13 this week
no commentswrite comment
1 2 3 4 5
3 more votes to show rating
add to favorites
launch autoscroll
font size
0
reset
guitar tuner
Autoscroll
slow
fast
+/-
esc
set tempo
stop
Help us to improve Ultimate-Guitar.com Take our survey!
×
Author
Difficulty
novice
Tabbed by: 6METAL6BASSIST6
E-mail: petergriffinav@gmail.com

Tuning: EADG

G|----------------------------------------------------------------|
D|5---------------5---5-----------5---------------5---5-----------|
A|------------5---------------5---------------5---------------5---|
E|----------------------------------------------------------------|

0:05

G|----------------------------------------------------------------|
D|7---------------7---7-------------------------------------------|
A|------------7---------------7---5---------------5---5-------5---|
E|--------------------------------------------5-------------------|

G|----------------------------------------------------------------|
D|5---------------5---5-----------5---------------5---5-----------|
A|------------5---------------5---------------5---------------5---|
E|----------------------------------------------------------------|

G|----------------------------------------------------------------|
D|7---------------7---7-------------------------------------------|
A|------------7---------------7---5---------------5---5-------5---|
E|--------------------------------------------5-------------------|

G|----------------------------------------------------------------|
D|5---------------5---5-----------5---------------5---5-----------|
A|------------5---------------5---------------5-------------------|
E|----------------------------------------------------------------|

0:26

G|----------------------------------------------------------------|
D|7-------7-------7---7-------------------------------------------|
A|------------7---------------7---5-------5-------5---5-------3---|
E|--------------------------------------------5-------------------|

G|----------------------------------------------------------------|
D|----------------------------4---2-------2-------2---2-----------|
A|2-------2-------2---2-----------------------2-------------------|
E|------------2---------------------------------------------------|

G|----------------------------------------------------------------|
D|7-------7-------7---7-------------------------------------------|
A|------------7---------------7---5-------5-------5---5-------5---|
E|--------------------------------------------5-------------------|

G|----------------------------------------------------------------|
D|5-------5-------5---5-----------5-------5-------5---5-----------|
A|------------5---------------5---------------5---------------5---|
E|----------------------------------------------------------------|

0:46

G|----------------------------------------------------------------|
D|7-------7-------7---7-------------------------------------------|
A|------------7---------------7---5-------5-------5---5-------5---|
E|--------------------------------------------5-------------------|

G|----------------------------------------------------------------|
D|9-------9-------9---9-------------------------------------------|
A|------------9---------------9---7-------7-------7---7-------7---|
E|--------------------------------------------7-------------------|

G|----------------------------------------------------------------|
D|7-------7-------7---7-------------------------------------------|
A|------------7---------------7---5-------5-------5---5-------5---|
E|--------------------------------------------5-------------------|

G|----------------------------------------------------------------|
D|5-------5-------5---5-----------5---5-----------5---5-----------|
A|------------5---------------5---------------5---------------5---|
E|----------------------------------------------------------------|

1:07

G|----------------------------------------------------------------|
D|7-------7-------7-------7---------------7-------9---10----------|
A|----------------------------7---5-------------------------------|
E|----------------------------------------------------------------|

G|----------------------------------------------------------------|
D|9-------9-------9-------9---------------------------------------|
A|--------------------9-------9---7-------7-------7-------7-------|
E|----------------------------------------------------7-------7---|

G|----------------------------------------------------------------|
D|7-------7-------7-------7---------------------------------------|
A|--------------------7-------7---5-------5-------5-------5---5---|
E|----------------------------------------------------5-----------|

G|----------------------------------------------------------------|
D|5-------5-------5-------5-------5---5-----------5-------5-------|
A|------------5-------------------------------5-------5-------5---|
E|----------------------------------------------------------------|

1:27

G|----------------------------------------------------------------|
D|7---------------7---7---------------------------------------7---|
A|------------7---------------7---5-------5-------5---5-----------|
E|--------------------------------------------5-------------------|

G|----------------------------------------------------------------|
D|9---------------9---9-------------------------------------------|
A|------------9---------------9---7-------7-------7---7-------7---|
E|--------------------------------------------7-------------------|

G|----------------------------------------------------------------|
D|7-------7-------7---7-------------------------------------------|
A|------------7---------------7---5-------5-------5---5-------5---|
E|--------------------------------------------5-------------------|

G|--------------------------------|
D|----5-------5---3---2-----------|
A|------------------------5---\---|
E|--------------------------------|

1:44

G|----------------------------------------------------------------|
D|--------------------------------5-------5---------------5-------|
A|3-------3-------3-------3---------------------------5-------5---|
E|----------------------------5-----------------------------------|

G|----------------------------------------------------------------|
D|------------------------2---4---5-------5-----------------------| x2
A|3-------3-------3---5-----------------------------------2-------|
E|--------------3---------------------------------5---------------|

G|----------------------------------------------------------------|
D|------------------------2---4---5---5---------------------------|
A|3-------3-------3---5-----------------------5-----------2---5---|
E|--------------3-------------------------------------3-----------|

2:04

G|----------------------------------------------------------------|
D|--------------------------------5---5---------------------------|
A|3-------3---------------3-------------------5-----------2-------|
E|--------------------3-------5-----------------------5-----------|

G|----------------------------------------------------------------|
D|----------------------------------------------------------------|
A|3-------3-------3---3---3-------------------------------2-------|
E|--------------------------------3-------3-------5---------------|

G|----------------------------------------------------------------|
D|----------------------------------------------------------------|
A|3-------3---------------5-------------------------------2-------|
E|--------------------------------3-------3-------5---------------|

G|----------------------------------------------------------------|
D|----------------------------------------------------------------|
A|3-------3-------3---2-------------------------------------------|
E|--------------3---------5---2---3-------3-------3-------3-------|

G|--------------------------------------------------------------------|
D|----------------2-------4-------5-------5---------------5-----------| fades out here.
A|3-------3-------------------------------------------5-----------3---|
E|------------------------------------------------------------3-------|
Suggest correction
Give kudos to tab author, rate the tab!
1 2 3 4 5
comments
print report bad tab
guest
You may want to rate the tab now too:
select rating
Wanna post a correction for this tab? Suggest correction