Oops, an error
Loading. Please wait.

Go Where You Wanna Go bass

version 1
version 1

Whole song

Interactive

78 views 1 this week
no commentswrite comment
1 2 3 4 5
3 more votes to show rating
add to favorites
×
Save as Personal and add changes to this tab that will be seen only by you. Learn more ›
×
You can save this tab as Personal to edit and correct it or add notes. All changes will be seen only by you. Learn more »
launch autoscroll
font size
0
reset
guitar tuner
edit
Autoscroll
slow
fast
+/-
esc
set tempo
stop
Author
Difficulty
Tabbed by: 6METAL6BASSIST6
E-mail: petergriffinav@gmail.com

Tuning: EADG

Re-tabbed.

G|--------7-------------------------------7-------9---7-----------|
D|5---------------------------7---5-----------5-----------9---7---|
A|------------5---3-----/-7---------------------------------------|
E|----------------------------------------------------------------|

0:04

G|----------------------------------------7-----------------------|
D|5-------5-------------------7---5---------------------------7---|
A|------------5---3-----/-7-------------------5---3-----/-7-------|
E|----------------------------------------------------------------|

G|----------------------------------------------------------------|
D|5---------------------------7---5---------------------------7---|
A|------------5---3-----/-7-----------------------3-----/-7-------|
E|----------------------------------------------------------------|

G|--------7-------------------------------7-----------------------|
D|5---------------------------7---5---------------------------7---|
A|------------5---3-----/-7-------------------5---3-----/-7-------|
E|----------------------------------------------------------------|

G|--------7-------------------------------------------------------|
D|5---------------------------7---5---------------------------7---|
A|------------5---3-----/-7-------------------5---3-----/-7-------|
E|----------------------------------------------------------------|

0:25

G|----------------------------------------------------------------|
D|5-----------5---------------------------------------------------|
A|----------------5-----------6---7-----------7-----------7---\---|
E|------------------------------------------------7---------------|

G|----------------------------------------------------------------|
D|----------------------------------------------------------------|
A|3-----------3-----------3---2-------------------3-------7-------|
E|----------------3---------------5-----------5-------------------|

G|----------------------------------------------------------------|
D|----------------------------------------------------------------|
A|5---5---5---5---5---5---5---5---5---5---5---5---5---5---5---5---|
E|----------------------------------------------------------------|

0:38

G|----------------------------------------------------------------|
D|5-----------5-----------5---4---3-----------3-----------3-------|
A|----------------5-------------------------------3-----------3---|
E|----------------------------------------------------------------|

G|----------------------------------------------------------------|
D|2-----------2---2-----------------------------------------------|
A|------------------------0---/---5-----------5---5---4---5---6---|
E|----------------------------------------------------------------|

G|----------------------------------------------------------------|
D|----------------------------------------------------------------|
A|7-----------7---7-------7-----------------------5-------5-------|
E|--------------------------------5-----------5-------------------|

G|----------------------------------------------------------------|
D|5-----------5-----------5---------------------------------------|
A|----------------5-----------5---7-----------7-------------------|
E|------------------------------------------------7-----------7---|

G|------------------------------------------------9---7-----------|
D|--------------------------------------------------------9---7---|
A|7-----------7-------------------5-------------------------------|
E|----------------7-----------7-----------------------------------|

1:00

G|----------------------------------------------------------------|
D|5---------------------------7---5---------------------------7---|
A|------------5---3-----/-7-------------------5---3-----/-7-------|
E|----------------------------------------------------------------|

G|--------7-------------------------------7-----------------------|
D|5---------------------------7---5---------------------------7---|
A|------------5---3-----/-7-------------------5---3-----/-7-------|
E|----------------------------------------------------------------|

G|----------------------------------------7-----------------------|
D|5---------------------------7---5---------------------------7---|
A|------------5---3-----/-7-------------------5---3-----/-7-------|
E|----------------------------------------------------------------|

G|--------7-------------------------------7-----------------------|
D|5---------------------------7---5---------------------------7---|
A|------------5---3-----/-7-------------------5---3-----/-7-------|
E|----------------------------------------------------------------|

1:19

G|----------------------------------------------------------------|
D|5-----------5---------------------------------------------------|
A|----------------5-----------6---7-----------7-----------7---5---|
E|------------------------------------------------7---------------|

G|----------------------------------------------------------------|
D|----------------------------------------------------------------|
A|3-----------3-----------3---2-------------------3-------7-------|
E|----------------3---------------5-----------5-------------------|

G|----------------------------------------------------------------|
D|----------------------------------------------------------------|
A|5-------5---5---5---5---5---5---5---5---5---5---5---5---5---5---|
E|----------------------------------------------------------------|

1:32

G|----------------------------------------------------------------|
D|5-----------5-----------5---4---3-----------3-----------3-------|
A|----------------5-------------------------------3-----------3---|
E|----------------------------------------------------------------|

G|----------------------------------------------------------------|
D|2-----------2---2-----------------------------------------------|
A|------------------------0---/---5-----------5---5---4---5---6---|
E|----------------------------------------------------------------|

G|----------------------------------------------------------------|
D|----------------------------------------------------------------|
A|7-----------7-----------7-----------------------5-----------5---|
E|----------------7---------------5-----------5-------------------|

G|----------------------------------------------------------------|
D|5-----------5---------------------------------------------------|
A|----------------5-----------6---7-----------7-----------7-------|
E|------------------------------------------------7-----------7---|

G|--------------------------------|
D|--------------------------------|
A|----------------4-------7-------|
E|5-----------5-------------------|

G|------------------------------------------------9---7-----------|
D|--------------------------------------------------------9---7---|
A|5---5---5---5---5---5---5---5---5---5---5-----------------------|
E|----------------------------------------------------------------|

1:58

G|--------7-------------------------------------------------------|
D|5---------------------------7---5---------------------------7---|
A|------------5---3-----/-7-------------------5---3-----/-7-------|
E|----------------------------------------------------------------|

G|----------------------------------------------------------------|
D|5---------------------------7---5---------------------------7---|
A|------------5---3-----/-7-------------------5---3-----/-7-------|
E|----------------------------------------------------------------|

G|----------------------------------------7-----------------------|
D|5-------5-------------------7---5---------------------------7---|
A|------------5---3-----/-7-------------------5---3-----/-7-------|
E|----------------------------------------------------------------|

G|--------7-------------------------------------------------------|
D|5---------------------------7---5---------------------------7---|
A|------------5---3-----/-7-------------------5---3-----/-7-------|
E|----------------------------------------------------------------|

2:12

G|----------------------------------------------------------------|
D|5---------------------------7---5---------------------------7---|
A|------------5---3-----/-7-------------------5---3-----/-7-------|
E|----------------------------------------------------------------|

G|--------7-------------------------------7-----------------------|
D|5---------------------------7---5---------------------------7---|
A|------------5---3-----/-7-------------------5---3-----/-7-------|
E|----------------------------------------------------------------|

Until fadeout.

G|----------------------------------------------------------------|
D|5---------------------------7---5---------------------------7---|
A|------------5---3-----/-7-------------------5---3-----/-7-------|
E|----------------------------------------------------------------|

            
            
Suggest correction
Creating personal tab
Creating personal tab
You can edit any tab online and save it as your Personal.

You can edit, replace or remove any tab part or add personal notes – all changes will be seen only by you.

Personal tabs can be accessed anytime from any device, even offline.
Learn more »
Give kudos to tab author, rate the tab!
1 2 3 4 5
comments
print report bad tab
guest
You may want to rate the tab now too:
select rating
Wanna post a correction for this tab? Suggest correction