Oops, an error
Loading. Please wait.

Hey Girl Bass Tab

13 views 3 this week
no commentswrite comment
1 2 3 4 5
3 more votes to show rating
add to favorites
launch autoscroll
font size
0
reset
guitar tuner
Autoscroll
slow
fast
+/-
esc
set tempo
stop
Help us to improve Ultimate-Guitar.com Take our survey!
×
Author
Difficulty
novice
Tabbed by: 6METAL6BASSIST6
E-mail: petergriffinav@gmail.com

Tuning: EADG

G|----------------------------------------------------------------|
D|4---4---1-------4-------2---3---4---4---1-------4---4-----------|
A|------------4-------4-----------------------4-----------4---5---|
E|----------------------------------------------------------------|

0:05

G|----------------------------------------------------------------|
D|--------------------------------4---4---1-------4---4-----------|
A|6---6---4-------6-------4---6---------------4-----------2---3---|
E|------------6-------6-------------------------------------------|

G|----------------------------------------------------------------|
D|----------------------------------------------------------------|
A|4---4---2-------4-------2---3---4---4---2-------4-------2---/---|
E|------------4-------4-----------------------4-------4-----------|

G|----------------------------------------------------------------|
D|----------------------------------------------------------------|
A|6---6---4-------6-------4---6---7---7---7-------7-------7---6---|
E|------------6-------6-----------------------7-------7-----------|

G|----------------------------------------------------------------|
D|----------------------------------------------------------------|
A|4---4---2-------4-------2---3---4---4---2-------4-------4---3---|
E|------------4-------4-----------------------4-------4-----------|

0:22

G|----------------------------------------------------------------|
D|--------------------------------------------------------2---3---|
A|2-------2-----------------------2-------2-----------2-----------|
E|----------------2---2---5-----------------------5---------------|

G|----------------------------------------------------------------|
D|4---4---1-------4-------2---3---4---4---1-------4---4-----------|
A|------------4-------4-----------------------4-----------4---5---|
E|----------------------------------------------------------------|

G|----------------------------------------------------------------|
D|--------------------------------------------------------4---5---|
A|6---6---4-------6-------4---5---6---6---4-------6---6-----------|
E|------------6-------6-----------------------6-------------------|

G|----------------------------------------------------------------|
D|6---6---4-------6-------4---6---------------------------2---3---|
A|------------6-------6-----------4---4---2-------4---4-----------|
E|--------------------------------------------4-------------------|

0:39

G|----------------------------------------------------------------|
D|4---4---1-------4-------2---3---4---4---1-------4---4-----------|
A|------------4-------4-----------------------4-----------2---3---|
E|----------------------------------------------------------------|

G|----------------------------------------------------------------|
D|----------------------------------------------------------------|
A|4---4---2-------4-------2---3---4---4---2-------4-------2---/---|
E|------------4-------4-----------------------4-------4-----------|

G|----------------------------------------------------------------|
D|----------------------------------------------------------------|
A|6---6---4-------6-------4---6---7---7---7-------7-------7---6---|
E|------------6-------6-----------------------7-------7-----------|

G|----------------------------------------------------------------|
D|--------------------------------------------------------4---5---|
A|4---4---2-------4-------2---3---4---4---2-------4---4-----------|
E|------------4-------4-----------------------4-------------------|

0:56

G|----------------------------------------------------------------|
D|6-------6---------------6---------------------------------------|
A|----------------6---6-------6---4-------4-------4---4---4---4---|
E|--------------------------------------------4-------------------|

G|----------------------------------------------------------------|
D|2-------2-------2-------2-------1-------1-------1-------1---/---|
A|------------2-------------------------------1-------------------|
E|----------------------------------------------------------------|

G|----------------------------------------------------------------|
D|6-------6---------------4---5---6-------6-----------4---5---6---|
A|----------------6---6---------------------------6---------------|
E|----------------------------------------------------------------|

G|--------------------------------|
D|------------------------2---3---|
A|4-------4-------2---4-----------|
E|--------------------------------|

1:10

G|--------------------------------------------------------|
D|4-----------2-------------------------------------------|
A|--------4-----------2---4-------------------------------|
E|--------------------------------------------------------|

G|--------------------------------------------------------|
D|------------------------4-------------------------------|
A|6-------6-----------6-----------------------------------|
E|------------6-------------------------------------------|

G|----------------------------------------------------------------|
D|----------------------------------------------------------------|
A|6-------6-------6-------6---5---4-------4-------4-------2---3---|
E|------------6-------6-----------------------4-------4-----------|

G|--------------------------------|
D|--------------------------------|
A|4-------4-------4-------6-------|
E|------------4-------------------|

1:24

G|----------------------------------------------------------------|
D|4---4---1-------4-------2---3---4---4---1-------4---4-----------|
A|------------4-------4-----------------------4-----------2---3---|
E|----------------------------------------------------------------|

G|----------------------------------------------------------------|
D|----------------------------------------------------------------|
A|4---4---2-------4-------2---3---4---4---2-------4-------2---/---|
E|------------4-------4-----------------------4-------4-----------|

G|----------------------------------------------------------------|
D|----------------------------------------------------------------|
A|6---6---4-------6-------4---6---7---7---7-------7-------7---6---|
E|------------6-------6-----------------------7-------7-----------|

G|----------------------------------------------------------------|
D|----------------------------------------------------------------|
A|4---4---2-------4-------2---3---4---4---2-------4-------4---3---|
E|------------4-------4-----------------------4-------4-----------|

1:41

G|----------------------------------------------------------------|
D|--------------------------------------------------------2---3---|
A|2-------2-----------------------2-------2-----------2-----------|
E|----------------2-------5-----------------------5---------------|

G|----------------------------------------------------------------|
D|4---4---1-------4-------2---3---4---4---1-------4---4-----------|
A|------------4-------4-----------------------4-----------4---5---|
E|----------------------------------------------------------------|

G|----------------------------------------------------------------|
D|--------------------------------------------------------4---5---|
A|6---6---4-------6-------4---5---6---6---4-------6---6-----------|
E|------------6-------6-----------------------6-------------------|

G|----------------------------------------------------------------|
D|6---6---4-------6-------4---6-----------------------------------|
A|------------6-------6-----------4---4---2-------4-------2---3---|
E|--------------------------------------------4-------4-----------|

G|--------------------------------|
D|------------------------4---5---|
A|4---4---2-------4---4-----------|
E|------------4-------------------|

2:00

G|----------------------------------------------------------------|
D|6-------6---------------6---------------------------------------|
A|----------------6---6-------6---4-------4---------------4-------|
E|------------------------------------------------4---------------|

G|----------------------------------------------------------------|
D|2-------2---------------2-------1-------1---------------1---/---|
A|----------------2-------------------------------1---------------|
E|----------------------------------------------------------------|

G|----------------------------------------------------------------|
D|6-------6---------------4---5---6-------6-------4---5---6---4---|
A|----------------6---6-----------------------6-------------------|
E|----------------------------------------------------------------|

G|--------------------------------|
D|------------------------2---3---|
A|4-------4-------2---4-----------|
E|--------------------------------|

G|--------------------------------------------------------|
D|4-----------2-------------------------------------------|
A|--------4-----------2---4-------------------------------|
E|--------------------------------------------------------|

G|--------------------------------|
D|------------------------4-------|
A|6-------6-----------6-----------|
E|------------6-------------------|
Suggest correction
Give kudos to tab author, rate the tab!
1 2 3 4 5
comments
print report bad tab
guest
You may want to rate the tab now too:
select rating
Wanna post a correction for this tab? Suggest correction