Oops, an error
Loading. Please wait.

I Wanna Be A Star Bass Tab

28 views 3 this week
no commentswrite comment
1 2 3 4 5
3 more votes to show rating
add to favorites
launch autoscroll
font size
0
reset
guitar tuner
Autoscroll
slow
fast
+/-
esc
set tempo
stop
Help us to improve Ultimate-Guitar.com Take our survey!
×
Author
Difficulty
novice
Tabbed by: 6METAL6BASSIST6
E-mail: petergriffinav@gmail.com

Tuning: EADG

G|10--------------------------------------------------------------|
D|--------10------8-------10--------------------------------------|
A|--------------------------------10------3-----------------------|
E|------------------------------------------------------------0---|

G|----------------------------------------------------------------|
D|------------------------------------------------------------4---|
A|------------3-------2---3---0---1---1---2---3-------2---3-------|
E|1---1-----------------------------------------------------------|

G|----------------------------------------------------------------|
D|5---5-------5-------5---5-------5---5-------5---5-------5-------|
A|----------------------------5-----------------------5-------2---|
E|----------------------------------------------------------------|

G|----------------------------------------------------------------|
D|----------------------------5---------------------------2-------|
A|3---3-------3---3---3-----------3---3-------3---3---5-----------|
E|------------------------------------------------------------0---|

0:18

G|----------------------------------------------------------------|
D|----------------------------------------------------------------|
A|--------3---3-------3-------3---1---1---2---3-------3---3-------|
E|1---1-----------------------------------------------------------|

G|----------------------------------------------------------------|
D|5---5-------5-------5-------5---5---5-------5-------5-------5---|
A|--------5---------------5---------------5---------------5-------|
E|----------------------------------------------------------------|

G|----------------------------------------------------------------|
D|3---3-------3-------3-------3---3---3-------3-------3-------3---|
A|--------3---------------3---------------3---------------3-------|
E|----------------------------------------------------------------|

G|----------------------------------------------------------------|
D|----------------------------------------------------------------|
A|3---3-------3-------3-------3---3---3-------3-------3-------3---|
E|--------3---------------3---------------3---------------3-------|

0:36

G|----------------------------------------------------------------|
D|----------------------------------------------------------------|
A|1---1-------1-------1-------1---1---1-------1-------1-------1---|
E|--------1---------------1---------------1---------------1-------|

G|----------------------------------------------------------------|
D|--------------------------------------------------------2---4---|
A|5---5-------5-------5-------5---5---5-------5-------5-----------|
E|--------5---------------5---------------5-----------------------|

G|----------------------------------------------------------------|
D|5---5-------5-------5-------5---5---5-------5-------5-------5---|
A|--------5---------------5---------------5---------------5-------|
E|----------------------------------------------------------------|

G|3---3-------3-------3-------3---3---3-------3-------3-------3---|
D|--------3---------------3---------------3---------------3-------|
A|----------------------------------------------------------------|
E|----------------------------------------------------------------|

0:54

G|------------------------------------------------------------2---|
D|3---3-------3-------3-------3---3---3-------3-------3---5-------|
A|--------3---------------3---------------3-----------------------|
E|----------------------------------------------------------------|

G|3---3-------3-------3-------3---3---3-------3-------3-------3---|
D|--------3---------------3---------------3---------------3-------|
A|----------------------------------------------------------------|
E|----------------------------------------------------------------|

G|----------------------------------------------------------------|
D|3---------------------------------------------------------------|
A|----5-------5-------5-------5---5---5-------5-------5-------5---|
E|--------5---------------5---------------5---------------5-------|

G|------------------------------------------------------------2---|
D|5---5-------5-------5-------5---5---5-------5-------5-----------|
A|--------5---------------5---------------5---------------5-------|
E|----------------------------------------------------------------|

1:12

G|3---3-------3-------3-------3---3---3-------3-------3-------3---|
D|--------3---------------3---------------3---------------3-------|
A|----------------------------------------------------------------|
E|----------------------------------------------------------------|

G|--------------------------------------------5-------------------|
D|3---3-------3-------3-------------------5-----------------------|
A|--------3---------------1---2---3---3---------------------------|
E|----------------------------------------------------------------|

1:21

G|----------------------------------------------------------------|
D|--------------------------------------------------------2---3---|
A|----0---1---3-----------3-------1---1---2---3-------------------|
E|1-------------------3-------------------------------------------|

G|----------------------------------------------------------------|
D|5---5-------5-------5-------5---5---5-------5-------5-------5---|
A|--------5---------------5---------------5---------------5-------|
E|----------------------------------------------------------------|

G|--------------------------------5---5-------5-------5-----------|
D|------------------------5---7-----------5---------------5-------|
A|3---3-------3---3---3-------------------------------------------|
E|------------------------------------------------------------3---|

1:34

G|----------------------------------------------------------------|
D|----------------------------------------------------------------|
A|----1---2---3---------------0---1---1---2---3-------------------|
E|1-------------------1---3---------------------------0---1---2---|

G|----------------------------------------------------------------|
D|--------------------------------5---5-------5-------5-------5---|
A|----------------------------5-----------5---------------5-------|
E|3---3-------3---3---3-------------------------------------------|

G|--------------------------------------------------------2---3---|
D|3---3-------------------3-------3---3-------3-------3-----------|
A|--------3-----------3-------3-----------3-----------------------|
E|------------1---------------------------------------------------|

G|5---5-------5-------5-------5-----------5---5---------------5---|
D|--------5---------------5-----------5-------------------5-------|
A|--------------------------------3-------------------3-----------|
E|----------------------------------------------------------------|

1:52

G|--------------------------------------------------------7-------|
D|5---5-------5-------5-------5---5---5-------5-------5-------5---|
A|--------5---------------5---------------5-----------------------|
E|----------------------------------------------------------------|

G|----------------------------------------------------------------|
D|3---3-------3-------3-------3---3---3-------3-------3-------3---|
A|--------3---------------3---------------3---------------3-------|
E|----------------------------------------------------------------|

G|----------------------------------------------------------------|
D|----------------------------------------------------------------|
A|3---3-------3-------3-------3---3---3-------3-------3-------3---|
E|--------3---------------3---------------3---------------3-------|

G|----------------------------------------------------------------|
D|5---5-------5-------5-------5---5---5-------5-------5-------5---|
A|--------5---------------5---------------5---------------5-------|
E|----------------------------------------------------------------|

G|-------------------------------------------------------------------------------|
D|3---3-------3-------3-------3---3---3-------3-------3-------3------------------| fades out here.
A|--------3---------------3---------------3---------------3------3---3-------3---|
E|-----------------------------------------------------------------------3-------|
Suggest correction
Give kudos to tab author, rate the tab!
1 2 3 4 5
comments
print report bad tab
guest
You may want to rate the tab now too:
select rating
Wanna post a correction for this tab? Suggest correction