Oops, an error
Loading. Please wait.

Meditation Mama Bass Tab

16 views 3 this week
no commentswrite comment
1 2 3 4 5
3 more votes to show rating
add to favorites
launch autoscroll
font size
0
reset
guitar tuner
Autoscroll
slow
fast
+/-
esc
set tempo
stop
Help us to improve Ultimate-Guitar.com Take our survey!
×
Author
Difficulty
novice
Tabbed by: 6METAL6BASSIST6
E-mail: petergriffinav@gmail.com

Tuning: 1/4 step down.

G|--------------------------------------------------------------------------------|
D|9---------------9---------------9-----------9---9---------------9---------------|
A|--------------------------------------------------------------------------------|
E|--------------------------------------------------------------------------------|

G|----------------------------------------------------------------|
D|----------------------------------------------------------------|
A|9-----------9---9-----------9---9-----------9---9-------9-------|
E|----------------------------------------------------------------|

G|--------------------------------------------------------------------------------|
D|9---------------9---------------9-----------9---9---------------9---------------|
A|--------------------------------------------------------------------------------|
E|--------------------------------------------------------------------------------|

G|----------------------------------------------------------------|
D|----------------------------------------------------------------|
A|9-----------9---9-----------9---9-----------9---9-------9-------|
E|----------------------------------------------------------------|

0:25

G|--------------------------------------------------------8-------|
D|9-----------9-------------------9-----------9---11--------------|
A|----------------9-----------9-----------------------------------|
E|----------------------------------------------------------------|

G|9-----------9-----------9-------------------------------8-------|
D|----------------9---------------9-----------9---11--------------|
A|----------------------------------------------------------------|
E|----------------------------------------------------------------|

G|9-----------9-----------9---------------------------------------|
D|----------------9---------------9-----------9-------------------|
A|------------------------------------------------9-----------9---|
E|----------------------------------------------------------------|

G|----------------------------------------------------------------|
D|9-----------9-----------9-----------------------11--------------|
A|----------------9---------------9-----------9---------------9---|
E|----------------------------------------------------------------|

G|11------9-------8---------------|
D|------------------------11------|
A|--------------------------------|
E|--------------------------------|

0:50

G|--------------------------------------------------------8-------|
D|9-----------9-------------------9-----------9---11--------------|
A|----------------9-----------9-----------------------------------|
E|----------------------------------------------------------------|

G|9-----------9-----------9-------------------------------8-------|
D|----------------9---------------9-----------9---11--------------|
A|----------------------------------------------------------------|
E|----------------------------------------------------------------|

G|9-----------9-----------9---------------------------------------|
D|----------------9---------------9-----------9-------------------|
A|------------------------------------------------9-----------9---|
E|----------------------------------------------------------------|

G|----------------------------------------------------------------|
D|9-----------9-----------9-----------------------11----------11--|
A|----------------9---------------9-----------9-------------------|
E|----------------------------------------------------------------|

G|--------------------------------|
D|------------------------11------|
A|9-------7-------6---------------|
E|--------------------------------|

1:14

G|----------------------------------------------------------------|
D|9-----------9-------------------9-----------9-------------------|
A|----------------9-----------9---------------------------6-------|
E|------------------------------------------------9---------------|

G|----------------------------------------------------------------|
D|----------------6-------8-------9-----------9-----------9-------| x2
A|7-----------7-----------------------------------9---------------|
E|----------------------------------------------------------------|

G|----------------------------------------------------------------|
D|----------------------------------------------------6---8-------|
A|6-----------6---6-------6-------9-----------9---9---------------|
E|----------------------------------------------------------------|

G|----------------------------------------------------------------|
D|9-----------9-------------------9-----------9-----------9-------|
A|----------------9-----------9-------------------9---------------|
E|----------------------------------------------------------------|

1:41

G|----------------------------------------------------------------|
D|----------------9-----------9-------------------9---------------|
A|7-----------7-------------------7-----------7-----------7-------|
E|----------------------------------------------------------------|

G|----------------------------------------------------------------|
D|----------------------------------------------------------------|
A|9-----------9---9-----------9---9-----------9---9-------9-------|
E|----------------------------------------------------------------|

1:52

G|--------------------------------------------------------------------------------|
D|9---------------9---------------9-----------9---9---------------9---------------|
A|--------------------------------------------------------------------------------|
E|--------------------------------------------------------------------------------|

G|----------------------------------------------------------------|
D|----------------------------------------------------------------|
A|9-----------9---9-----------9---9-----------9---9-------9-------|
E|----------------------------------------------------------------|

G|--------------------------------------------------------------------------------|
D|9---------------9---------------9-----------9---9---------------9---------------|
A|--------------------------------------------------------------------------------|
E|--------------------------------------------------------------------------------|

G|----------------------------------------------------------------|
D|----------------------------------------------------------------|
A|9-----------9---9-----------9---9-----------9---9-------9-------|
E|----------------------------------------------------------------|

2:17

G|--------------------------------------------------------8-------|
D|9-----------9-------------------9-----------9---11--------------|
A|----------------9-----------9-----------------------------------|
E|----------------------------------------------------------------|

G|9-----------9-----------9-------------------------------8-------|
D|----------------9---------------9-----------9---11--------------|
A|----------------------------------------------------------------|
E|----------------------------------------------------------------|

G|9-----------9-----------9---------------------------------------|
D|----------------9---------------9-----------9-------------------|
A|------------------------------------------------9-----------9---|
E|----------------------------------------------------------------|

G|----------------------------------------------------------------|
D|9-----------9-----------9-----------------------11--------------|
A|----------------9---------------9-----------9---------------9---|
E|----------------------------------------------------------------|

G|11------9-------8---------------|
D|------------------------11------|
A|--------------------------------|
E|--------------------------------|

2:41

G|--------------------------------------------------------8-------|
D|9-----------9-------------------9-----------9---11--------------|
A|----------------9-----------9-----------------------------------|
E|----------------------------------------------------------------|

G|9-----------9-----------9-------------------------------8-------|
D|----------------9---------------9-----------9---11--------------|
A|----------------------------------------------------------------|
E|----------------------------------------------------------------|

G|9-----------9-----------9---------------------------------------|
D|----------------9---------------9-----------9-------------------|
A|------------------------------------------------9-----------9---|
E|----------------------------------------------------------------|

G|----------------------------------------------------------------|
D|9-----------9-----------9-----------------------11----------11--|
A|----------------9---------------9-----------9-------------------|
E|----------------------------------------------------------------|

G|--------------------------------|
D|------------------------11------|
A|9-------7-------6---------------|
E|--------------------------------|

3:06

G|----------------------------------------------------------------|
D|9-----------9-------------------9-----------9-------------------|
A|----------------9-----------9---------------------------6-------|
E|------------------------------------------------9---------------|

G|----------------------------------------------------------------|
D|----------------6-------8-------9-----------9-----------9-------| x2
A|7-----------7-----------------------------------9---------------|
E|----------------------------------------------------------------|

G|----------------------------------------------------------------|
D|----------------------------------------------------6---8-------|
A|6-----------6---6-------6-------9-----------9---9---------------|
E|----------------------------------------------------------------|

G|----------------------------------------------------------------|
D|9-----------9-------------------9-----------9-----------9-------|
A|----------------9-----------9-------------------9---------------|
E|----------------------------------------------------------------|

3:33

G|----------------------------------------------------------------|
D|----------------9-----------9-------------------9---------------|
A|7-----------7-------------------7-----------7-----------7-------|
E|----------------------------------------------------------------|

G|----------------------------------------------------------------|
D|----------------------------------------------------------------|
A|9-----------9---9-----------9---9-----------9---9-------9-------|
E|----------------------------------------------------------------|

3:43 Until fadeout.

G|--------------------------------------------------------------------------------|
D|9---------------9---------------9-----------9---9---------------9---------------|
A|--------------------------------------------------------------------------------|
E|--------------------------------------------------------------------------------|

G|----------------------------------------------------------------|
D|----------------------------------------------------------------|
A|9-----------9---9-----------9---9-----------9---9-------9-------|
E|----------------------------------------------------------------|
Suggest correction
Give kudos to tab author, rate the tab!
1 2 3 4 5
comments
print report bad tab
guest
You may want to rate the tab now too:
select rating
Wanna post a correction for this tab? Suggest correction