Oops, an error
Loading. Please wait.

Somebody Groovy bass

52 views 1 this week
no commentswrite comment
1 2 3 4 5
3 more votes to show rating
add to favorites
×
Save as Personal and add changes to this tab that will be seen only by you. Learn more ›
×
You can save this tab as Personal to edit and correct it or add notes. All changes will be seen only by you. Learn more »
launch autoscroll
font size
0
reset
guitar tuner
edit
Autoscroll
slow
fast
+/-
esc
set tempo
stop
Author
Difficulty
Tabbed by: 6METAL6BASSIST6
E-mail: petergriffinav@gmail.com

Tuning: EADG

Re-tabbed.

0:08

G|------------|
D|------------|
A|------------|
E|4-----5-----|

G|----------------------------------------------------------------|
D|--------------------------------------------------------6---8---|
A|------------6-7-8---8-----------------------6-7-8---8-----------|
E|6---------------------------5---6-------------------------------|

G|----------------------------------------------------------------|
D|--------------------------/-8---------------------------6---8---|
A|------------6-7-8---8-----------------------6-7-8---8-----------|
E|6-------------------------------6-------------------------------|

G|----------------------------------------------------------------|
D|----------------------------------------------------------------|
A|6---------------------------5---6---------------------------8---|
E|------------5---6-----------------------------5-6---6-----------|

G|----------------------------------------------------------------|
D|--------------------------/-8---------------------------6---8---|
A|------------6-7-8---8-----------------------6-7-8---8-----------|
E|6-------------------------------6-------------------------------|

G|----------------------------------------------------------------|
D|----------------------------------------------------------------|
A|8-------8---8---8---8---8---7---6---6---6---6---6---6---6---8---|
E|----------------------------------------------------------------|

G|----------------------------------------------------------------|
D|----------------------------8---------------------------6---8---|
A|------------6-7-8---8-----------------------6-7-8---8-----------|
E|6-------------------------------6-------------------------------|

0:34

G|----------------------------------------------------------------|
D|----------------------------8---------------------------6---8---|
A|------------6-7-8---8-----------------------6-7-8---8-----------|
E|6-------------------------------6-------------------------------|

G|----------------------------------------------------------------|
D|----------------------------8---------------------------6---8---|
A|------------6-7-8---8-----------------------6-7-8---8-----------|
E|6-------------------------------6-------------------------------|

G|----------------------------------------------------------------|
D|----------------------------------------------------------------|
A|6---------------------------5---6-----------------------6---8---|
E|--------------5-6---6-------------------------5-6---6-----------|

G|----------------------------------------------------------------|
D|----------------------------8---------------------------6---8---|
A|------------6-7-8---8-----------------------6-7-8---8-----------|
E|6-------------------------------6-------------------------------|

G|----------------------------------------------------------------|
D|----------------------------------------------------------------|
A|8-------8-------8-------8---7---6-------6-------6---6---6-/-8---|
E|----------------------------------------------------------------|

G|----------------------------------------------------------------|
D|----------------------------8-----------------------------------|
A|------------6-7-8---8---------------------------5---5---6---7---|
E|6-------------------------------6-----------6-------------------|

0:59

G|----------------------------------------------------------------|
D|----------------------------------------------------------------|
A|8---------------------------8---6-----------------------6---8---|
E|--------------7-8---8-------------------------5-6---6-----------|

G|----------------------------------------------------------------|
D|----------------------------8-----------------------------------|
A|------------6-7-8---8---------------------------5---5---6---8---|
E|6-------------------------------6-----------6-------------------|

G|----------------------------------------------------------------|
D|----------------------------------------------------------------|
A|6---------------------------6---8-----------------------8-------|
E|--------------5-6---6-------------------------7-8---8-----------|

G|----------------------------------------------------------------|
D|--------------------------------------------------------6---8---|
A|--------------7-8---8-----------8---8---8---8---8---8-----------|
E|6---------------------------8-----------------------------------|

1:15

G|----------------------------------------------------------------|
D|----------------------------8---------------------------6---8---|
A|------------6-7-8---8-----------------------6-7-8---8-----------|
E|6-------------------------------6-------------------------------|

G|----------------------------------------------------------------|
D|----------------------------8---------------------------6---8---|
A|------------6-7-8---8-----------------------6-7-8---------------|
E|6-------------------------------6-------------------------------|

G|----------------------------------------------------------------|
D|----------------------------------------------------------------|
A|6---------------------------5---6-----------------------6---8---|
E|--------------5-6---6-----------------------5---6---------------|

G|----------------------------------------------------------------|
D|----------------------------8---------------------------6---8---|
A|------------6-7-8---8-----------------------6-7-8---8-----------|
E|6-------------------------------6-------------------------------|

G|----------------------------------------------------------------|
D|----------------------------------------------------------------|
A|8-------8-------8-------8---7---6-------6-------6-------6---8---|
E|----------------------------------------------------------------|

G|----------------------------------------------------------------|
D|--------------------------/-8---------------------------6---8---|
A|------------6-7-8---8-----------------------6-7-8---8-----------|
E|6-------------------------------6-------------------------------|

1:40

G|----------------------------------------------------------------|
D|----------------------------8-------------------------6-----8---|
A|------------6-7-8---8-----------------------6-7-8---8-----8-----|
E|6-------------------------------6-------------------------------|

G|----------------------------------------------------------------|
D|----------------------------8---------------------------8---8---|
A|------------6-7-8---8-----------------------6-7-8---8-----------|
E|6-------------------------------6-------------------------------|

G|----------------------------------------------------------------|
D|----------------------------------------------------------------|
A|6-----------------------6---7---8-----------------------8---8---|
E|--------------5-6---6-------------------------7-8---8-----------|

G|----------------------------------------------------------------|
D|--------------------------/-8-----------------------------------|
A|------------6-7-8---8---------------------------5---5---6---7---|
E|6-------------------------------6-----------6-------------------|

1:55

G|----------------------------------------------------------------|
D|----------------------------------------------------------------|
A|8---------------------------8---6-----------------------6---8---|
E|--------------7-8---8-------------------------5-6---6-----------|

G|----------------------------------------------------------------|
D|----------------------------------------------------------------|
A|--------------7-8---8-------------------------7-8---8-------8---|
E|6---------------------------5---6-----------------------6-------|

G|----------------------------------------------------------------|
D|----------------------------------------------------------------|
A|6-----------------------6---7---8---------------------/-8---8---|
E|--------------5-6---6-------------------------7-8---8-----------|

G|----------------------------------------------------------------|
D|--------------------------------------------------------6---8---|
A|----------------6---6-------7---8---8---8---8---8---8-----------|
E|6-------------6-------------------------------------------------|

2:13

G|----------------------------------------------------------------|
D|----------------------------8-------------------------6-----8---|
A|------------6-7-8---8-----------------------6-7-8---8-----8-----|
E|6-------------------------------6-------------------------------|

G|----------------------------------------------------------------|
D|----------------------------8---------------------------6---8---|
A|------------6-7-8---8-----------------------6-7-8---8-----------|
E|6-------------------------------6-------------------------------|

G|----------------------------------------------------------------|
D|----------------------------------------------------------------|
A|6---------------------------5---6-----------------------6---8---|
E|--------------5-6---6-----------------------5---6---6-----------|

G|----------------------------------------------------------------|
D|----------------------------8---------------------------6---8---|
A|------------6-7-8---8-----------------------6-7-8---8-----------|
E|6-------------------------------6-------------------------------|

2:30

G|----------------------------------------------------------------|
D|----------------------------------------------------------------|
A|8-------8-------8-------8---7---6---6---6---6---6---6---6---8---|
E|----------------------------------------------------------------|

G|----------------------------------------------------------------|
D|----------------------------8-----------------------------------|
A|------------6-7-8---8---------------------------5---5---6---7---|
E|6-------------------------------6-----------6-------------------|

G|----------------------------------------------------------------|
D|----------------------------------------------------------------|
A|8-------8-------8-------8---7---6---6---6---6---6---6---6---8---|
E|----------------------------------------------------------------|

G|----------------------------------------------------------------|
D|----------------------------8-----------------------------------|
A|------------6-7-8---8---------------------------5---5---6---7---|
E|6-------------------------------6-----------6-------------------|

2:45

G|----------------------------------------------------------------|
D|----------------------------------------------------------------|
A|8-------8-------8-------8---7---6-------6-------6-------6---8---|
E|----------------------------------------------------------------|

G|----------------------------------------------------------------|
D|----------------------------8---------------------------6---8---|
A|------------6-7-8---8-----------------------6-7-8---8-----------|
E|6-------------------------------6-------------------------------|

G|----------------------------------------------------------------|
D|----------------------------------------------------------------|
A|8-----------------------8---7---6---6---6-------6---6---6---8---|
E|--------------7-8---8-------------------------------------------|

G|----------------------------------------------------------------|
D|----------------------------8-----------------------------------|
A|------------6-7-8---8---------------------------5---5---6---7---|
E|6-------------------------------6-----------6-------------------|

G|----------------------------------------------------------------|
D|----------------------------------------------------------------|
A|8--------8------8---8---8---7---6-------6-------6-------6---8---|
E|----------------------------------------------------------------|

G|----------------------------------------------------------------|
D|----------------------------8-----------------------------------|
A|------------6-7-8---8---------------------------5-----6---6-7---|
E|6-------------------------------6-----------6-------6-----------|

G|------------------------------------|
D|------------------------------------| fades out here.
A|8--------8----7-8-------8---7---6---|
E|------------------------------------|

            
            
Suggest correction
Creating personal tab
Creating personal tab
You can edit any tab online and save it as your Personal.

You can edit, replace or remove any tab part or add personal notes – all changes will be seen only by you.

Personal tabs can be accessed anytime from any device, even offline.
Learn more »
Give kudos to tab author, rate the tab!
1 2 3 4 5
comments
print report bad tab
guest
You may want to rate the tab now too:
select rating
Wanna post a correction for this tab? Suggest correction