Oops, an error
Loading. Please wait.

The In Crowd Bass Tab

10 views 10 this week
no commentswrite comment
1 2 3 4 5
3 more votes to show rating
add to favorites
launch autoscroll
font size
0
reset
guitar tuner
Autoscroll
slow
fast
+/-
esc
set tempo
stop
Help us to improve Ultimate-Guitar.com Take our survey!
×
Author
Difficulty
novice
Tabbed by: 6METAL6BASSIST6
E-mail: petergriffinav@gmail.com

Tuning: EADG

G|5---------------------------------------------------------------|
D|------------8-----------5-----------3-----------1---------------|
A|--------------------------------------------------------3-------|
E|----------------------------------------------------------------|

G|----------------------------------------------------------------|
D|----------------------------------------------------------------|
A|3-----------3---3-----------3---3---3-------3-------3---1-------|
E|------------------------------------------------------------3---|

0:09

G|----------------------------------------------------------------|
D|----------------------------------------------------------------|
A|3-----------3---3---3-----------3---3-------1-----------1-------|
E|----------------------------------------------------3-------3---|

G|----------------------------------------------------------------|
D|----------------------------------------------------------------|
A|3-----------3---3-----------3---3---3-------3---3---3---1-------|
E|------------------------------------------------------------3---|

G|----------------------------------------------------------------|
D|----------------------------------------------------------------|
A|3-----------3---3-----------3---3---3-------3-------3---1-------|
E|------------------------------------------------------------3---|

G|----------------------------------------------------------------|
D|--------------------------------------------------------1-------|
A|3-----------3---3---3-------3-------3---1-------3---1-------3---|
E|--------------------------------------------3-------------------|

0:26

G|----------------------------------------------------------------|
D|3-----------3---3-----------3---3---3-------3-------3---1-------|
A|------------------------------------------------------------3---|
E|----------------------------------------------------------------|

G|----------------------------------------------------------------|
D|3-----------3---3-----------3---3---3-------3---1-------3-------|
A|----------------------------------------------------3-------1---|
E|----------------------------------------------------------------|

G|----------------------------------------------------------------|
D|----------------------------------------------------------------|
A|3-----------3---3-----------3---3---3-------3-------3---1-------|
E|------------------------------------------------------------3---|

G|----------------------------------------------------------------|
D|----------------------------------------------------------------|
A|3-----------3---3-----------3---3---3-------1-------1---/-------|
E|----------------------------------------------------------------|

0:42

G|----------------------------------------------------------------|
D|----------------------------------------------------------------|
A|7---7---7---7---7---7---7---7---7---7---7---7---7---7---7---7---|
E|----------------------------------------------------------------|

G|----------------------------------------------------------------|
D|7---7---7---7---7---7---7---7---7---7---7---7---7---7---7---7---|
A|----------------------------------------------------------------|
E|----------------------------------------------------------------|

G|----------------------------------------------------------------|
D|----------------------------------------------------------------|
A|5---5---5---5---5---5---5---5---5---5---5---5---5---5---5---5---|
E|----------------------------------------------------------------|

G|--------------------------------7---5---------------------------|
D|3---3---3---3---3---3---3-------------------8-------------------|
A|----------------------------------------------------------------|
E|----------------------------------------------------------------|

G|5---------------------------------------------------------------|
D|------------8-----------5-----------3-----------1---------------|
A|--------------------------------------------------------3-------|
E|----------------------------------------------------------------|

1:03

G|----------------------------------------------------------------|
D|----------------------------------------------------------------|
A|3-----------3---3-----------3---3---3-------3-------3---1-------|
E|------------------------------------------------------------3---|

G|----------------------------------------------------------------|
D|----------------------------------------------------------------|
A|3-----------3---3-----------3---3---3-------3---3---3---1-------|
E|------------------------------------------------------------3---|

G|----------------------------------------------------------------|
D|----------------------------------------------------------------|
A|3-----------3---3-----------3---3---3-------3-------3---1-------|
E|------------------------------------------------------------3---|

G|----------------------------------------------------------------|
D|--------------------------------------------------------1-------|
A|3-----------3---3-----------3---3---3-------3---1---3-------3---|
E|----------------------------------------------------------------|

1:19

G|----------------------------------------------------------------|
D|3-----------3---3-----------3---3---3-------3-------3---1-------|
A|------------------------------------------------------------3---|
E|----------------------------------------------------------------|

G|----------------------------------------------------------------|
D|3-----------3---3-----------3---3---3-------3---3---3---1-------|
A|------------------------------------------------------------1---|
E|----------------------------------------------------------------|

G|----------------------------------------------------------------|
D|----------------------------------------------------------------|
A|3-----------3---3-----------3---3---3-------3---3---3---1-------|
E|------------------------------------------------------------3---|

G|----------------------------------------------------------------|
D|----------------------------------------------------------------|
A|3-----------3---3-----------3---3---3-------3-------3---3---/---|
E|----------------------------------------------------------------|

1:35

G|----------------------------------------------------------------|
D|----------------------------------------------------------------|
A|7---7---7---7---7---7---7---7---7---7---7---7---7---7---7---7---|
E|----------------------------------------------------------------|

G|----------------------------------------------------------------|
D|7---7---7---7---7---7---7---7---7---7---7---7---7---7---7---7---|
A|----------------------------------------------------------------|
E|----------------------------------------------------------------|

G|----------------------------------------------------------------|
D|----------------------------------------------------------------|
A|5---5---5---5---5---5---5---5---5---5---5---5---5---5---5---5---|
E|----------------------------------------------------------------|

G|--------------------------------7---5---------------------------|
D|3---3---3---3---3---3---3-------------------8-------------------|
A|----------------------------------------------------------------|
E|----------------------------------------------------------------|

G|5---------------------------------------------------------------|
D|------------8-----------5-----------3-----------1---------------|
A|--------------------------------------------------------3-------|
E|----------------------------------------------------------------|

1:55

G|----------------------------------------------------------------|
D|----------------------------------------------------------------|
A|3-----------3---3-----------3---3---3-------3---3---3---1-------|
E|------------------------------------------------------------3---|

G|----------------------------------------------------------------|
D|----------------------------------------------------------------|
A|3-----------3---3---3-------3-------3-------3---3---3---1-------|
E|------------------------------------------------------------3---|

G|----------------------------------------------------------------|
D|----------------------------------------------------------------|
A|3-----------3---3-----------3---3---3-------3-------3---1-------|
E|------------------------------------------------------------3---|

G|----------------------------------------------------------------|
D|--------------------------------------------------------1-------|
A|3-----------3---3-----------3---3---3-------3-------3-------3---|
E|----------------------------------------------------------------|

2:11

G|----------------------------------------------------------------|
D|3-----------3---3-----------3---3---3-------3-------3---1-------|
A|------------------------------------------------------------3---|
E|----------------------------------------------------------------|

G|----------------------------------------------------------------|
D|3-----------3---3-----------3---3---3-------3-------1-----------|
A|------------------------------------------------------------1---|
E|----------------------------------------------------------------|

G|----------------------------------------------------------------|
D|----------------------------------------------------------------|
A|3-----------3---3-----------3---3---3-------3-------3---1-------|
E|------------------------------------------------------------3---|

G|----------------------------------------------------------------|
D|----------------------------------------------------------------|
A|3-----------3---3-----------3---3---3-------1-----------3---/---|
E|----------------------------------------------------------------|

2:27

G|----------------------------------------------------------------|
D|----------------------------------------------------------------|
A|7---7---7---7---7---7---7---7---7---7---7---7---7---7---7---7---|
E|----------------------------------------------------------------|

G|----------------------------------------------------------------|
D|7---7---7---7---7---7---7---7---7---7---7---7---7---7---7---7---|
A|----------------------------------------------------------------|
E|----------------------------------------------------------------|

G|----------------------------------------------------------------|
D|----------------------------------------------------------------|
A|5---5---5---5---5---5---5---5---5---5---5---5---5---5---5---5---|
E|----------------------------------------------------------------|

G|------------------------------------7---5---------------------------|
D|3-----3-----3-----3-----3-----3-----------------8-------------------|
A|--------------------------------------------------------------------|
E|--------------------------------------------------------------------|

G|5---------------------------------------------------------------|
D|------------8-----------5-----------3-----------1---------------|
A|--------------------------------------------------------3-------|
E|----------------------------------------------------------------|

2:47

G|----------------------------------------------------------------|
D|----------------------------------------------------------------|
A|3-----------3---3-----------3-------3-------3-------3---1-------|
E|------------------------------------------------------------3---|

G|----------------------------------------------------------------|
D|----------------------------------------------------------------|
A|3-----------3---3-----------3-------3-------1-----------1-------|
E|----------------------------------------------------3-------3---|

G|----------------------------------------------------------------|
D|--------------------------------------------1-------------------|
A|3-----------3---3---3-------3-------3---------------1-----------|
E|------------------------------------------------------------3---|

G|------------------------------------3---------------------------|
D|--------------------------------------------1-------------------|
A|3-----------3---3-----------------------------------1-----------|
E|------------------------------------------------------------3---|

G|--------------------------------------------------------------------|
D|--------------------------------------------------------------------|
A|3-----------3---3---3-----------3-----------1-----------------1-----|
E|--------------------------------------------------------3-----------|

G|------------------------------------3-------------------------------|
D|--------------------------------------------1-----------------------| fades out here.
A|3-----------3---3---3---------------------------1-------1-------3---|
E|----------------------------------------------------3-------3-------|
Suggest correction
Give kudos to tab author, rate the tab!
1 2 3 4 5
comments
print report bad tab
guest
You may want to rate the tab now too:
select rating
Wanna post a correction for this tab? Suggest correction