Oops, an error
Loading. Please wait.

Aberinkula Tab

version 1
version 1

Whole song

Interactive

4,551 views 6 this week
no commentswrite comment
1 2 3 4 5
accurate
x 2
add to favorites
launch autoscroll
font size
0
reset
how to read this tab
guitar tuner
Tab Pro tools
  • play this tab
  • loop segment
  • change instrument
  • show fretboard
  • metronome
Autoscroll
slow
fast
+/-
esc
set tempo
stop
Contributor
Song: Abernikula
Artists: The Mars Volta
Album: The Bedlam in Goliath
Tuning: Standard

Tabbed by Nathan Zwiener

Chorus (1, 2, 3)
|-------------------------------------------------------|
|-------------------------------------------------------|
|-------------------------------------------------------|
|-------------------------------------------------------|
|-5-5-5-4-4-4-------------------------------------------|
|-------------6-6-6-5-5-5-5-5-5-3-3-3-3-3-3-3-3-3-3-3-3-|
 
 (1:12)                                      (1:29)
 Verses 1 & 2 A                   B pt 1 (repeat)   B pt 2
|-------------------------------|-----------------|----------------------|
|-----------------8--88--88--88-|-------8-------8-|----------------------|
|-777777777777-10---------------|----10------10---|-777777777777-7h9h10~-|
|-------------------------------|-12------12------|----------------------|
|-------------------------------|-----------------|----------------------|
|-------------------------------|-----------------|----------------------|
 palm mute - - | 

Sorry, I can't tab this solo. Just solo in E major.

 Verse 3
|--------------------------------------|
|--------------------------------------|
|--------------------------------------|
|-0--2--3--2-----0-----0--2--3--2--0/5-|
|--------------4-----------------------|
|--------------------------------------|

 Guitar Solo - Play 3x with the two sax solos after the first and second
|------------------------------------------------------------------------------|
|------------------------------------------------------------------------------|
|------------------------------------------------------------------------------|
|--2----1--2-----------2---1---------------------------------------------------|
|-----0-------2----0-----0------5h7p4p0----------------------5h7p4p0-----------|
|---------------------------------------5h6p5p3-3h5p3p1p0-0----------5h6p3p0-0-|

|--------------------------------------------------------------|
|--------------------------------------------------------------|
|------------------------------0--2-0--------------------------|
|-0h3h5--3--0--2--2h3-2-0---0h3--------3-2-----0-----2---------|
|-------------------------------------------4-----4-----4--0---|
|--------------------------------------------------------------|

|--------------------------------------------------|
|--------------------------------------------------|
|----0--2-0----------------------------------------|
|-0h3--------3-2-----0-----------------------------|
|-----------------4----5h7p4p0-5h7p4p5-------------|
|--------------------------------------5h6p5p3p0---|

|------------------------------------------|
|------------------------------------------|
|----0--2-0--------------------------------|
|-0h3--------3-2-----0--2--2h3-0h2---------|
|-----------------4----------------4h5--4--|
|------------------------------------------|

|--------------------------------------------------|
|--------------------------------------------------|
|----0--2-0----------------------------------------|
|-0h3--------3-2-----0-----------------------------|
|-----------------4----5h7p4p0-5h7p4p5-------------|
|--------------------------------------5h6p5p3p0---|

 Sax Solo 1 Progression
|-------------------------------------|
|-------------------------------------|
|--9---10-------------9---10----------|
|-----------12---11------------8---7--|
|-------------------------------------|
|-------------------------------------|

 Sax Solo 2 Progression (play sax solo 1 then this)
|-------------------------------------|
|-------------------------------------|
|--9---10---12--------9---10----------|
|----------------11------------8---7--|
|-------------------------------------|
|-------------------------------------|

Thanks for playing, and give me feedback!
comments
We did not receive enough feedback on this tab! Please rate:
print report bad tab
1 2 3 4 5
I want to post or [tab]
guest
You may want to rate the tab now too:
select rating
Please do not post tabs as comments. Select "correction" instead!