Oops, an error
Loading. Please wait.

Asilos Magdalena Tab

version 3
version 3
106,456 views 192 this week
10 commentsread comments
1 2 3 4 5
excellent!
x 26
add to favorites
launch autoscroll
font size
0
reset
how to read this tab
guitar tuner
Tab Pro tools
  • play this tab
  • loop segment
  • change instrument
  • show fretboard
  • metronome
×
Best way to learn
"Asilos Magdalena"
Autoscroll
slow
fast
+/-
esc
set tempo
stop
Contributor
Asilos Magdalena by the Mars Volta

tabbed by: mikedapike

That song is played on an acoustic guitar and it's not so hard to play. There are
mostly appreggios.
There are some extra riffs in the second verse and the outro. However, I didn't tab them.
Just like the intro with the weird effects.^^ But I will do the extra riffs when I've got
enough time.
well, that's my first tab. Enjoy!

Fingerpicking

verse part
0:42 min
e-x-----7-----7-----|---------|-------3---|---------------|---------------|
b-x-----6-----6---6-|-----3---|----2--2---|-----2---2---2-|----6------6---|
g-x---7-----7-----7-|---2-----|-3-------3-|---0-0---0---0-|---0------0----|
D-x-0-----0-----0---|-3-----3-|-----------|-2-----2---2---|-/7----7-5---5-|
A-x-----------------|---------|-----------|---------------|---------------|
E-x-----------------|---------|-----------|---------------|---------------|

bridge 1
1:22 min
e---------|-------------|
b-----8---|-------10----|
g---7-----|----10-------|
D-8-----8-|-11-------11-|
A---------|-------------|
E---------|-------------|

chorus
1:25 min
e-12-------|10-------|-8--------|-6------|-6------6-|-3-------|-5----------|
b--------0-|---------|----------|--------|----------|---------|------------|
g----------|-----7---|----9-----|--------|----------|-----3---|------------|
D-0--------|---7-----|---8------|----7---|-----7----|---2---2-|-----7-7(/)-|
A-----12---|8------8-|-10---10/-|--5---5-|---5------|---------|---7--------|
E---13-----|---------|----------|-6------|-6------6-|-3-------|-5----------|

e-1-------|-3-----3-|----------------------------------------------|
b---------|---------|-2-----2(pick that note harder than the rest)-|
g-----2---|-----3---|-----2----------------------------------------|
D---0---0-|---2-----|---2------------------------------------------|
A---------|---------|-0--------------------------------------------|
E-1-------|-3-----3-|----------------------------------------------|

bridge 2
2:03
e-1--1-1-1-1-0-----|-0-|-3--3-3-3-------|-----------------|----------------|
b-3------------3---|-2-|-3--------6-5-6-|-6-6-6-5-3--3/5~-|-2------2-------|
g-2--------------2-|-0-|-3--------7-----|---------0-------|-2-2h3--2-2h3-2-|
D-0----------------|-2-|-5--------------|-----------------|---2h3----2h3-2-|
A------------------|-0-|----------------|-----------------|----------------|
E------------------|---|----------------|-----------------|----------------|

song structure:

1.verse: 4x
2.bridge 1
3.chorus: 2x
4.bridge 2
5.verse: 4x
6.bridge 1
7.chorus: 2x
8.bridge 2 (it's a bit different to the first time)
9.verse: many times^^
comments
print report bad tab
10 comments total. Showing first comments.
+1 reply
sardonicgoat wrote on September 21 2006, 03:29 pm

great tab to a great song

0 reply
mrch wrote on October 4 2006, 10:25 am

very nice tab, always wanted to learn this one, tnx ^^

0 reply
emoaintthatbad? wrote on November 3 2006, 03:19 pm

maybe it just me but does that tuning say to tune to 'h' ? lol

I want to post or [tab]
guest
You may want to rate the tab now too:
select rating
Please do not post tabs as comments. Select "correction" instead!