Oops, an error
Loading. Please wait.

Asilos Magdalena Tab

version 6
version 6
274 views 1 this week
no commentswrite comment
1 2 3 4 5
3 more votes to show rating
add to favorites
launch autoscroll
font size
0
reset
how to read this tab
guitar tuner
Autoscroll
slow
fast
+/-
esc
set tempo
stop
Help us to improve Ultimate-Guitar.com Take our survey!
×
hola, esta cancion se toca en guitarra acustica y no es dificil.
bueno... enjoy it

verso
0:42 min
e-x-----7-----7---7-|---------|-------3---|---------------|---------------|
b-x-----6-----6---6-|-----3---|----2--2---|-----2---2---2-|----6------6---|
g-x---7-----7-------|---2-----|-3-------3-|---0-0---0---0-|---0------0----|
D-x-0-----0-----0---|-3-----3-|-----------|-2-----2---2---|-/7----7-5---5-|
A-x-----------------|---------|-----------|---------------|---------------|
E-x-----------------|---------|-----------|---------------|---------------|

bridge 1
1:22 min
e---------|-------------|
b-----8---|-------10----|
g---7-----|----10-------|
D-8-----8-|-11-------11-|
A---------|-------------|
E---------|-------------|

coro
1:25 min
e-12-------|10-------|-8--------|-6------|-6------6-|-3-------|
b--------0-|---------|----------|--------|----------|---------|
g----------|-----7---|----9-----|--------|----------|-----3---|
D-0--------|---7-----|---8------|----7---|-----7----|---2---2-|
A-----12---|8------8-|-10---10/-|--5---5-|---5------|---------|
E---13-----|---------|----------|-6------|-6------6-|-3-------|

e-5---------
b-----------
g-----------
D----7-7(/)-
A---7-------
E-5---------

e-1-------|-3-----3-|----------------------------------------------|
b---------|---------|-2-----2(suenen esta nota mas fuerte que el resto)
g-----2---|-----3---|-----2----------------------------------------|
D---0---0-|---2-----|---2------------------------------------------|
A---------|---------|-0--------------------------------------------|
E-1-------|-3-----3-|----------------------------------------------|

bridge 2
2:03
  Dm                A7
e-1--1-1-1-1-0-----|-0-|---3-3-3-------|-----------------|----------------|
b-3------------3---|-2-|---------6-5-6-|-6-6-6-5-3--3/5~-|-2------2-------|
g-2--------------2-|-0-|---------7-----|---------0-------|-2-2h3--2-2h3-2-|
D-0----------------|-2-|---------------|-----------------|---2h3----2h3-2-|
A------------------|-0-|---------------|-----------------|----------------|
E------------------|---|---------------|-----------------|----------------|

esa es toda la tablatura y ahi les dejo a continuacion la letra

Enfermo llegué
y para componerme ando de vago
No me des tu obediencia
por que te enseño mi cuerpo de lobo
a donde la piel estuvo debil
con una hambre que no me deja cantar

En mi vida,
el oscuro me mantiene
cuando yo te vi
en la lluvia me prometistes tu sangre

Yo no me quedo en mi vida
el oscuro me mantiene
cuando yo te vi
en la lluvia me prometistes tu sangre
yo no me quedo

Y ya que caiste de este mundo
cargo una navaja
dios mio
para ti
Cuantas veces me mordiste
y cuantas veces yo me fui

Y ya no me estoy enamorado
con tus mentiras
el infierno me duermo
por que el infierno es la unica verdad

En mi vida,
el oscuro me mantiene
cuando yo te vi
en la lluvia me prometistes tu sangre

Yo no me quedo en mi vida
el oscuro me mantine
cuando yo te vi
en la lluvia me prometistes tu sangre
yo no me quedo

Estrella de la mañana
Ismael te persigo a ti
y si me quedo sin alas
ademas me muero por ti

Estrella de la mañana
Ismael te persigo a ti
y si me quedo sin alas
ademas me muero por ti

Estrella de la mañana
Ismael te persigo a ti
y si me quedo sin alas
ademas me muero por ti

Estrella de la mañana
Ismael te persigo a ti
y si me quedo sin alas
ademas me muero por ti

Estrella de la mañana
Ismael te persigo a ti
y si me quedo sin alas
ademas me muero por ti
Suggest correction
Give kudos to tab author, rate the tab!
1 2 3 4 5
comments
print report bad tab
guest
You may want to rate the tab now too:
select rating
Wanna post a correction for this tab? Suggest correction