Oops, an error
Loading. Please wait.

Cicatriz Esp Bass Tab

version 1
version 1

Whole song

Interactive

10,240 views 9 this week
1 commentread comment
1 2 3 4 5
excellent!
x 6
add to favorites
launch autoscroll
font size
0
reset
guitar tuner
Tab Pro tools
  • play this tab
  • loop segment
  • change instrument
  • show fretboard
  • metronome
×
Best way to learn
"Cicatriz Esp"
Autoscroll
slow
fast
+/-
esc
set tempo
stop
Contributor
Difficulty
intermediate
-------------------------------------------------------------------------------
			     Cicatriz Esp - The Mars Volta
-------------------------------------------------------------------------------

This is not my tab, but I've found acouple of Mars Volta bass tabs and have submitted 
here for easy access.

tabbed by: Omar Rodriguez


           intro
G|-----------|------------|------------|------------|
D|-----------|------------|------------|------------|
A|-77-7-7-57-|-577-7-7-57-|-577-7-7-57-|-577-7-7-57-|
E|-----------|------------|------------|------------|

G|------------|------------|------------|------------|
D|-577-7-7-57-|-577-7-7-57-|-577-7-7-57-|-577-7-7-57-|
A|------------|------------|------------|------------|
E|------------|------------|------------|------------|

           verse
G|------------|------------|------------|------------|
D|------------|------------|------------|------------|
A|-577-7-7-57-|-577-7-7-57-|-577-7-7-57-|-577-7-7-57-|
E|------------|------------|------------|------------|

G|------------|------------|------------|------------|
D|-577-7-7-57-|-577-7-7-57-|-577-7-7-57-|-577-7-7-57-|
A|------------|------------|------------|------------|
E|------------|------------|------------|------------|

           pre-chorus
G|------------|------------|------------|------------|
D|------------|------------|------------|------------|
A|-33-3-3-1-3-|-355-5-5-35-|-577-7-7-57-|-577-7-7-57-|
E|------------|------------|------------|------------|

G|--------------|------------|------------|------------|-----------|
D|--------------|------------|------------|------------|-----------|
A|-1-33-3-3-1-3-|-355-5-5-35-|-577-7-7-57-|-577-7-7-57-|-577-7-7-57|
E|--------------|------------|------------|------------|-----------|

           verse (x2)
           pre-chorus

           chorus  1:44
G|------------|------------|------------|------------|
D|------------|------------|------------|------------|
A|-3-3-3-3----|-5-5-5-5----|-7-7-7-7----|-7-7-7-7----|
E|--------3-5-|--------3-5-|--------7-5-|--------7-5-|
                                                                x2
G|------------|------------|------------|------------|
D|------------|------------|------------|------------|
A|-3-3-3-3----|-5-5-5-5----|-7-7-7-5----|-7-7-7-5----|
E|--------3-5-|--------3-5-|--------7-5-|--------7-5-|

           verse (x2)
           pre-chorus

           chorus
G|------------|------------|------------|------------|
D|------------|------------|------------|------------|
A|-3-3-3-3----|-5-5-5-5----|-7-7-7-7----|-7-7-7-7----|
E|--------3-5-|--------3-5-|--------7-5-|--------7-5-|
                                                                x2
G|------------|------------|------------|------------|
D|------------|------------|------------|------------|
A|-3-3-3-3----|-5-5-5-5----|-7-7-7-5----|-7-7-7-5----|
E|--------3-5-|--------3-5-|--------7-5-|--------7-5-|

           guitar solo 1
           3:25
G|------------|-------7----|-------------|-------------|
D|----5--7-5--|--5-9---9-5-|-------------|-------------|
A|-5-7------7-|-7----------|-7-5---------|--------5----|
E|------------|------------|----7--5-7-5-|-0-3-7---7-5-|

           3:32
G|--------------|--------------|-------------|--------------|
D|--------------|--------------|-------------|--------------|
A|--------------|--------5-7-5-|-7-5-7--5----|-7-5-7--5-7-5-|
E|-0-3-7--5-7-5-|-0-3-7--------|---------7-5-|--------------|

           3:38
G|----------------|----------------|-------------|-------------|
D|----------------|----------------|-------------|-------------|
A|----7-7-5-55555-|----7-7-5-55555-|-7-5-7--5----|-7-5-7--5----|
E|-0-0------------|-0-0------------|---------7-5-|---------7-5-|

           3:44
G|-------------|-------------|
D|-------------|-------------|
A|-7-5-7--5----|-7-5-7--5----|
E|---------7-5-|---------7-5-|

            bss solo  3:50
G|------12----------|------14\12----------|
D|------------------|---------------------|
A|-14h15-----14h15--|-14h15--------14h15--|
E|----------------0-|-------------------0-|

G|------12----------|----------------|
D|--------------14--|----------------|
A|-14h15---14-17----|----------------|
E|----------------0-|-0-0--0-0-------|

           4:04
G|---------------------------|-------------------------|
D|---------------------------|------9------------------|
A|-----7-9-10-10--10-9-7-----|-----7-10-10--10-9-7-----|
E|-0-----------------------0-|-0---------------------0-|

G|----------------|----------------|
D|----------------|----------------|
A|--------------- |---2------------|
E|-0-2-3-3--3-2-0-|-0---3-3--3-2-0-|

           4:18
G|------12--12h14--12----|-16-14---------12---------------|
D|--------------------14-|-------16-14-12---14-12---------|
A|-14h15-----------------|-----------------------14-12----|
E|-----------------------|-----------------------------0--|

G|----------------|----------------------|
D|------7---9-----|----------------------|
A|-10-----------7-|-7h10--10-10-10-9-7---|
E|----------------|--------------------0-|

      4:33
G|------10h12-12-12--12-11-9-|--------12--14-12--------------|
D|-14-12---------------------|---12-14--14-----14-12-14------|
A|---------------------------|-14----------------------------|
E|---------------------------|-------------------------0-0-0-|


G|-------------------|------------------|
D|-------------------|--9---------------|
A|-7-9-10-10--10-9-7-|-7-10-10--10-9-7--|
E|-------------------|------------------|

           4:47
G|------------------|-----------------------|
D|------------------|---------------9-------|
A|-7h10-10-10--1097-|-7h10-10-10--10-10-9-7-|
E|------------------|-----------------------|

G|---------------------|----------------|
D|---------------------|----------------|
A|-------5-------------|----7--9--10--9-|
E|-3--3-----7--5--3--0-|-7--------------|

G|-----------------------------------|
D|-----------------------------------|
A|-2--2--2--2------------------------|
E|------------0--0--3--3--3--3--0--0-|...

           guitar solo 2
           9:20
G|----------------|-------------------|
D|----------------|-------------------|
A|-77--77--57-575-|-77--77--57-575----|
 E|----------------|------------------|

           11:04
           verse(x3)
           pre-chorus
           chorus
comments
print report bad tab
1 comment total.
0 reply
housedimir66 wrote on September 15 2009, 01:50 pm

i think the chorus should be

g|-------------------------------|
d|-------------------------------|
a|333--3-555--3-777-75---777-75--|
e|---35-----35--------75-------75|

I want to post or [tab]
guest
You may want to rate the tab now too:
select rating
Please do not post tabs as comments. Select "correction" instead!