Oops, an error
Loading. Please wait.

Cotopaxi Tab

version 2
version 2

Whole song

Interactive

10,646 views 1 this week
no commentswrite comment
1 2 3 4 5
excellent!
x 5
add to favorites
launch autoscroll
font size
0
reset
how to read this tab
guitar tuner
Tab Pro tools
  • play this tab
  • loop segment
  • change instrument
  • show fretboard
  • metronome
×
Best way to learn
"Cotopaxi"
Autoscroll
slow
fast
+/-
esc
set tempo
stop
Difficulty
intermediate
---------------------------------------
                             COTOPAXI - The Mars Volta
---------------------------------------

Tabbed by: Fistfunk
Tuning: Standard (EADGBe)

"Intro" (3/8) + Verse (11/8)
e|---------|-----------------------------------------|
B|---------|-----------------------------------------|
G|---------|-----------------------------------------|
D|--5-6-3--|----------------------------------5-6-3--|
A|---------|----------------------3---3-4---4--------|
E|---------|--3-3-3-3-3---3-6---6--------------------| play 12 times (verse)

Chorus (8/8) 
e|----------------------------------|
B|--10---8--10---8--10---8---6---5--|
G|---7---5---7---5---7---5---3---2--|
D|----------------------------------| Use wah pedal
A|----------------------------------|
E|----------------------------------|

Verse (11/8)
e|-----------------------------------------|
B|-----------------------------------------|
G|-----------------------------------------|
D|----------------------------------5-6-3--|
A|----------------------3---3-4---4--------|
E|--3-3-3-3-3---3-6---6--------------------| play 8 times

Chorus (8/8)
e|----------------------------------|
B|--10---8--10---8--10---8---6---5--|
G|---7---5---7---5---7---5---3---2--|
D|----------------------------------| Use wah pedal
A|----------------------------------|
E|----------------------------------|

Bridge (8/8 - 10/8)
e|-----------------------|-------------------------------------|
B|-----------------------|-------------------------------------|
G|-----------------------|-------------------------------------|
D|-----------------------|--------------------------3---3-5-5--|
A|-----------------------|--3-3-3-3---3-5---5-6---6------------|
E|--3---3-3---3-5---5-6--|-------------------------------------| play 8 times
  .......Palm Mute....... ..............Palm Mute..............

  (4/8)
e|-----------------|
B|-----------------|
G|-----------------|
D|-----------------|
A|-----------------|
E|--3---3-3---3-5--|

 Heavier strumming (8/8 - 10/8)
e|-----------------------|-------------------------------------|
B|-----------------------|-------------------------------------|
G|-----------------------|-------------------------------------|
D|-----------------------|--------------------------3---3-5-5--|
A|-----------------------|--3-3-3-3---3-5---5-6---6------------|
E|--3---3-3---3-5---5-6--|-------------------------------------| play 8 times

Chorus (8/8)
e|--13---12---13--15--12---13---12---11---12--|
B|--------------------------------------------|
G|--------------------------------------------|
D|--------------------------------------------| Use wah pedal
A|--------------------------------------------|
E|--------------------------------------------|

Outro (11/8)
e|-----------------------------------------|
B|-----------------------------------------|
G|-----------------------------------------|
D|----------------------------------5-6-3--|
A|----------------------3---3-4---4--------|
E|--3-3-3-3-3---3-6---6--------------------| play 8 times

Git.2 
e|--3/15--|
B|--3/15--|
G|--0/12--|
D|--------|
A|--------|
E|--------| throw this one in according to the record

Enjoy!
comments
print report bad tab
I want to post or [tab]
guest
You may want to rate the tab now too:
select rating
Please do not post tabs as comments. Select "correction" instead!