Oops, an error
Loading. Please wait.

Cygnus Vismund Cygnus Tab

version 1
version 1

Whole song

Interactive

42,543 views 27 this week
15 commentsread comments
1 2 3 4 5
x 17
add to favorites
×
Save as Personal and add changes to this tab that will be seen only by you. Learn more ›
×
You can save this tab as Personal to edit and correct it or add notes. All changes will be seen only by you. Learn more »
save as personal
new!
launch autoscroll
font size
0
reset
how to read this tab
guitar tuner
Autoscroll
slow
fast
+/-
esc
set tempo
stop
Author
CYGNUS...VISMUND CYGNUS
As recorded by The Mars Volta
(From the 2005 Album FRANCES THE MUTE)

[Intro]("Sarcophagi")
  Q=145
       D5/AE5                                 Em(type 2)             D5/A
 3/4
[Gtr II]
[Gtr I]
e|--------|-0-----10----12-|--0-----12--0-10-|-0----7-----|-7-----7-----|
B|--------|-0--------------|-10--10----10----|-0------0---|---0-----0---|
G|------7-|-9--12----12----|-----------------|-0--9-----9-|-----9-----7-|
D|------9-|-9--------------|-----------------|------------|-----------9-|
A|--------|----------------|-----------------|------------|-------------|
E|--------|----------------|-----------------|------------|-------------|

  E5                                 Em(type 2)
[Gtr II]
[Gtr I]
e|-0-----10----12-|--0-----12--0-10-|-0----7-----|-7-----7-----|
B|-0--------------|-10--10----10----|-0------0---|---0-----0---|
G|-9--12----12----|-----------------|-0--9-----9-|-----9-----7-|
D|-9--------------|-----------------|------------|-----------9-|
A|----------------|-----------------|------------|-------------|
E|----------------|-----------------|------------|-------------|

  A5(type 2)     B5(type 2)     D5           E5(type 2)
[Gtr II]
[Gtr I]
e|--------------|--------------|-0--0-0-----|------------|
B|-10--10-8--10-|-12--12-10--8-|-7--5-7-5---|-8----8-----|
G|--9---9-9---9-|-11--11-11--9-|-7--7-7-7-7-|-7--7---7---|
D|--7-----------|--9-----------|-0--0-0-0-0-|-5--5-----5-|
A|--------------|--------------|------------|-7--------7-|
E|--------------|--------------|------------|------------|

  D5              C5             A5(type 2)
[Gtr II]
[Gtr I]
e|---------------|--------------|------------|-------------|
B|-12--12-10-----|-10--10-8-----|-7----7-----|-7-----7-----|
G|-11-----11--11-|--9-----9---9-|-0--0---0---|-0-0---0-0---|
D|--9----------9-|-10--------10-|-7--------7-|-7---7-7---7-|
A|---------------|--------------|-0----------|-------------|
E|---------------|--------------|------------|-------------|

  Bb5           A5(type 2D5/AE5
[Gtr II]
[Gtr I]
e|-------------|------------|-0-----10----12-|--0-----12----10-|
B|-7s8---8-----|-7--7-7-5---|-0--------------|-10--10----10----|
G|-0-------0---|-0--0-0-0-7-|-9--12----12----|-----------------|
D|-7s8-8-----8-|-7--7-7-7-7-|-9--------------|-----------------|
A|-------------|-0----------|----------------|-----------------|
E|-------------|------------|----------------|-----------------|

  Em(type 2)             D5/AE5
[Gtr II
[Gtr II]
e|-0----7-----|-7-----7-----|-0-----10----12-|--0-----12----10-|
B|-0------0---|---0-----0---|-0--------------|-10--10----10----|
G|-0--9-----9-|-----9-----7-|-9--12----12----|-----------------|
D|------------|-----------9-|-9--------------|-----------------|
A|------------|-------------|----------------|-----------------|
E|------------|-------------|----------------|-----------------|

  Em(type 2)                 A5(type 2)     B5(type 2)
[Gtr II]
[Gtr I]
e|-0----7-----|-7-----7-----|--------------|--------------|
B|-0------0---|---0-----0---|-10--10-8--10-|-12--12-10--8-|
G|-0--9-----9-|-----9-----7-|--9---9-9---9-|-11--11-11--9-|
D|------------|-----------9-|--7-----------|--9-----------|
A|------------|-------------|--------------|--------------|
E|------------|-------------|--------------|--------------|

  D5           E5(type 2)   D5              C5
[Gtr II]
[Gtr I]
e|-0--0-0-----|------------|---------------|--------------|
B|-7--5-7-5---|-8----8-----|-12--12-10-----|-10--10-8-----|
G|-7--7-7-7-7-|-7--7---7---|-11-----11--11-|--9-----9---9-|
D|-0--0-0-0-0-|-5--5-----5-|--9----------9-|-10--------10-|
A|------------|-7--------7-|---------------|--------------|
E|------------|------------|---------------|--------------|

  A5(type 2)                 Bb5           A5(type 2D5/A
[Gtr II]
[Gtr I]
e|------------|-------------|-------------|------------|
B|-7----7-----|-7-----7-----|-7s8---8-----|-7--7-7-5---|
G|-0--0---0---|-0-0---0-0---|-0-------0---|-0--0-0-0-7-|
D|-7--------7-|-7---7-7---7-|-7s8-8-----8-|-7--7-7-7-7-|
A|-0----------|-------------|-------------|-0----------|
E|------------|-------------|-------------|------------|

[1st Verse]
     N.C.                            N.C.
    4/4
[Gtr III]
e|--------------------------------|-------------------------------|
B|--------------------------------|-------------------------------|
G|--------------------------------|-------------------------------|
D|-----8--8-----------------------|----8--8-------------7-7-7-----|
A|--7--------7-8h10-10-10-10-8----|-7--------7-10p9-----------10--|
E|-----------------------------10-|-----------------10------------|

   N.C.                            N.C.
e|-------------------------------|------------------------------|
B|-------------------------------|------------------------------|
G|-------------------------------|---------7---9-7---7----------|
D|----8--8-----------------------|----8--9---9-----9---9-8-7----|
A|-7--------7-8h10-10-10-10-8----|-7-------------------------10-|
E|----------------------------10-|------------------------------|

   N.C.                            N.C.
  4/4
e|-------------------------------|------------------------------|
B|-------------------------------|------------------------------|
G|-------------------------------|------------------------------|
D|----8--8-----------------------|----8--8-------------7-7-7----|
A|-7--------7-8h10-10-10-10-8----|-7--------7-10p9-----------10-|
E|----------------------------10-|-----------------10-----------|

   N.C.                            N.C.
e|-------------------------------|---------------------------||
B|-------------------------------|--------------------------o||
G|-------------------------------|---------------------------||
D|----8--8-----------------------|----8--8----8----------5---||
A|-7--------7-8h10-10-10-10-8----|-7--------7---10-5-6------o||
E|----------------------------10-|---------------------5-----||

[Guitar Break]
   N.C.
[Gtr III]
e|------------------------------------------------------|
B|------------------------------------------------------|
G|------------------------------------------------------|
D|------------------------------------------------------|
A|------------------------------------------------------|
E|--0--------------------------0----3--6--7----7---6--3-|

[Gtr IV]
e|-------12-------12-------12---------12----------------|
B|-15b17----15b17----15b17----15b17------15b17---(15)---|
G|------------------------------------------------------|
D|------------------------------------------------------|
A|------------------------------------------------------|
E|------------------------------------------------------|

   N.C.
e|------------------------------------------------|
B|------------------------------------------------|
G|------------------------------------------------|
D|------------------------------------------------|
A|------------------------------------------------|
E|--0----------------------0-----3--6--7--7--6--3-|

e|-------12------------------------12-12-12-------|
B|-15b17----15b17r(15)-12-------12----------12----|
G|------------------------14b16----------------14-|
D|------------------------------------------------|
A|------------------------------------------------|
E|------------------------------------------------|

[N.C.]
[Gtr III]
e|-----------------------------------------------------|
B|-----------------------------------------------------|
G|-----------------------------------------------------|
D|-----------------------------------------------------|
A|-----------------------------------------------------|
E|--0------------------------------0--3----6--7-7--6-3-|

[Gtr IV]
e|--------------------------12-------------------------|
B|----12-----------------------15-12-------------------|
G|-14----14-12-14b16-14b16-----------14b16---12---14---|
D|-----------------------------------------------------|
A|-----------------------------------------------------|
E|-----------------------------------------------------|

   N.C.                                              N.C.
e|-------------------------------------------------|-----------|
B|-------------------------------------------------|-----------|
G|-------------------------------------------------|-----------|
D|-------------------------------------------------|-----------|
A|-------------------------------------------------|-----------|
E|--0--------------------------0--3--6--7--7--6--3-|--0--------|

e|----12-17-12-15-12-17-12-15-12-17-12-15-12-17-12-|-15--------|
B|-------------------------------------------------|-----------|
G|-12----------------------------------------------|-----------|
D|-------------------------------------------------|-----------|
A|-------------------------------------------------|-----------|
E|-------------------------------------------------|-----------|

[1st Verse]
[N.C.]                                 N.C.
[Gtr III]
    PM-----------------------------------|   PM-------------------|          
4x         
e|-------------------------------------|-------------------------------------|
B|o------------------------------------|------------------------------------o|
G|-------------------------------------|-------------------------------------|
D|--------8-x-8-x----------------------|---x-8-x-8-x------------7-7-[7]b7.5--|
A|o-7-7-7---------7-8h10-10-10-10-8----|-7-----------7-10p9-----------------o|
E|----------------------------------10-|--------------------10---------------|

   N.C.                 N.C.
e|--------------------|--------------------|
B|--------------------|--------------------|
G|--------------------|--------------------|
D|--------------------|--------------------|
A|--------------------|--------------------|
E|-0----0-3-6-7-7-6-3-|-0----0-3-6-7-7-6-3-|

e|--------------------|--------------------|
B|--------------------|--------------------|
G|--------------------|--------------------|
D|--------------------|--------------------|
A|--------------------|--------------------|
E|-0----0-3-6-7-7-6-3-|-0----0-3-6-7-7-6-3-|

   Em                     N.C.
  4/4
[Gtr III]
e|---12-----------------|----------------------|
B|------12----12----13--|----------------7-----|
G|---------12----12-----|------------8-------8-|
D|----------------------|---9---10-x---x---x---|
A|----------------------|-6---7----------------|
E|-0--------------------|----------------------|

   N.C.
e|---7----------------------|-----|
B|--------------------------|-----|
G|------------7-7-----------|-----|
D|-----9----9-----7b9r(7)-5-|-----|
A|-7-----10-----------------|-----|
E|--------------------------|-----|

[Pre-Verse]
  N.C.
 [Gtr III]
  PM----------------------------------------------------------|
e|-------------------------------------------------------------|
B|-------------------------------------------------------------|
G|-------------------------------------------------------------|
D|-------8-x-8-x-----------------------------------------------|
A|-7-7-7----------7-----8h=10--10--10---10--------8------------|
E|----------------------------------------------------10-------|

[Gtr IV]
e|-----------------------------------------------------------|
B|---------------12-------(12)----(12)-(12)-----(12)---------|
G|---------------14b16====(14)r===(14)-(14)b16==(14)r(14)p12-|
D|-----------------------------------------------------------|
A|-----------------------------------------------------------|
E|-----------------------------------------------------------|

  N.C.
 |-------------------------------------------|
e|-------------------------------------------|
B|-------------------------------------------|
G|-------------------------------------------|
D|-----x--8-x--8-x---------------7-7-7b7.5---|
A|--7---------------7--10p=9-----------------|
E|---------------------------10--------------|

                  ~~~~~~~
e|-----------------------------------------|
B|-----------------------------------------|
G|----12------12---------------------------|
D|-14----14--------14-(14)-----------------|
A|-----------------------------------------|
E|-----------------------------------------|

[N.C.]
[Gtr III]
    PM-------------------------------------------------------|
e|------------------------------------------------------------|
B|------------------------------------------------------------|
G|------------------------------------------------------------|
D|------------8--x--8---x-------------------------------------|
A|---7--7-7-------------------7---8h=====10--10-10-10--8------|
E|-------------------------------------------------------10---|

[Gtr IV]
     ~~~~
e|----------------------------------------------------------|
B|----------------------------------------------------------|
G|-----------------14-(14)b16r==(14)b16-(14)----12-------12-|
D|-(14)-----(14)-----------------------------14-------14----|
A|----------------------------------------------------------|
E|----------------------------------------------------------|


  N.C.
 |------------------------------------|
e|------------------------------------|
B|------------------------------------|
G|------------------------------------|
D|--------8-x-8-x---8------------5----|
A|--7-x-7---------7---10--5-6---------|
E|----------------------------5-------|

  ~~
e|----------------------------------|
B|----------------------------------|
G|----------------------------------|
D|-12-------------------------------|
A|----------------------------------|
E|----------------------------------|

[2nd Verse]
    N.C.                                 N.C.
    PM------------------------------------------------------------|4x                                              
e|-------------------------------------|-----------------------------------||
B|o------------------------------------|----------------------------------o||
G|-------------------------------------|-----------------------------------||
D|--------8-x-8-x----------------------|---x-8-x-8-x------------7-7-7b7.5--||
A|o-7-7-7---------7-8h10-10-10-10-8----|-7-----------7-10p9---------------o||
E|----------------------------------10-|--------------------10-------------||

   N.C.                 N.C.
e|--------------------|--------------------|
B|--------------------|--------------------|
G|--------------------|--------------------|
D|--------------------|--------------------|
A|--------------------|--------------------|
E|-0----0-3-6-7-7-6-3-|-0----0-3-6-7-7-6-3-|

   N.C.                 N.C.
e|--------------------|--------------------|
B|--------------------|--------------------|
G|--------------------|--------------------|
D|--------------------|--------------------|
A|--------------------|--------------------|
E|-0----0-3-6-7-7-6-3-|-0----0-3-6-7-7-6-3-|

   Em                     N.C.
  4/4
[Gtr III]
e|---12-----------------|----------------------|
B|------12----12----13--|----------------7-----|
G|---------12----12-----|------------8-------8-|
D|----------------------|---9---10-x---x---x---|
A|----------------------|-6---7----------------|
E|-0--------------------|----------------------|

   N.C.
e|---7----------------------|-----|
B|--------------------------|-----|
G|------------7-7-----------|-----|
D|-----9----9-----7b9r(7)-5-|-----|
A|-7-----10-----------------|-----|
E|--------------------------|-----|

[1st Chorus]
   Em                      A5/D5Bm
e|-12-12-12-12-12-12-12--|-------------------|
B|--x--x--x--x--x--x--x--|--------------8----|
G|-12-12-12-12-12-12-12--|------7-7-7-7-7-7--|
D|--x--x--x--x--x--x--x--|-14-7-0-0-0-0-0-0--|
A|--x--x--x--x--x--x--x--|-12-5-x------------|
E|-12-12-12-12-12-12-12--|-12-5-7------------|

   Em                      B A D  B
e|-12-12-12-12-12-12-12--|-------------------|
B|--x--x--x--x--x--x--x--|-------------------|
G|-12-12-12-12-12-12-12--|-8-6-11-8-8-8-8-8--|
D|--x--x--x--x--x--x--x--|-x-x--x-x-x-x-x-x--|
A|--x--x--x--x--x--x--x--|-x-x--x-x-x-x-x-x--|
E|-12-12-12-12-12-12-12--|-7-5-10-7-7-7-7-7--|

   Em                      A5/D5Bm
e|-12-12-12-12-12-12-12--|-------------------|
B|--x--x--x--x--x--x--x--|--------------8----|
G|-12-12-12-12-12-12-12--|------7-7-7-7-7-7--|
D|--x--x--x--x--x--x--x--|-14-7-0-0-0-0-0-0--|
A|--x--x--x--x--x--x--x--|-12-5-x------------|
E|-12-12-12-12-12-12-12--|-12-5-7------------|

   Em                      D            B
e|-12-12-12-12-12-12-12--|-------------------------------|
B|--x--x--x--x--x--x--x--|-------------------------------|
G|-12-12-12-12-12-12-12--|-11-11-11-11--8-8-8-8-8-8-8-8--|
D|--x--x--x--x--x--x--x--|--x--x--x--x--x-x-x-x-x-x-x-x--|
A|--x--x--x--x--x--x--x--|--x--x--x--x--x-7-x-x-x-x-x-x--|
E|-12-12-12-12-12-12-12--|-10-10-10-10--7-7-7-7-7-7-7-7--|

[Pre-Verse]
    N.C.
    PM-----------------------------------|
e|---------------------------------------|
B|o--------------------------------------|
G|---------------------------------------|
D|--------8-x-8-x------------------------|
A|o-7-7-7---------7-8h10-10-10-10-8------|
E|----------------------------------10---|

 [1.                                   2.]
  N.C.
                                       \0.5____/
 |-------------------------------------------------------------|
e|-----------------------------------||------------------------|
B|----------------------------------o||------------------0-----|
G|-----------------------------------||-0------(0)--(0)--0-----|
D|---x-8-x-8-x------------7-7-7b7.5--||-0------(0)--(0)--------|
A|-7-----------7-10p9---------------o||------------------------|
E|--------------------10-------------||------------------------|

[3rd Verse]
    N.C.
    PM-----------------------------------|
e|---------------------------------------|
B|o--------------------------------------|
G|---------------------------------------|
D|--------8-x-8-x------------------------|
A|o-7-7-7---------7-8h10-10-10-10-8------|
E|----------------------------------10---|

  N.C.
 |----------------------------|4x                                        
E|----------------------------------------|
B|---------------------------------------o|
G|----------------------------------------|
D|-------8-x-8-x------------7-7-[7]b7.5---|
A|-7-x-7---------7-10p9------------------o|
E|----------------------10----------------|

   N.C.                 N.C.
e|--------------------|--------------------|
B|--------------------|--------------------|
G|--------------------|--------------------|
D|--------------------|--------------------|
A|--------------------|--------------------|
E|-0----0-3-6-7-7-6-3-|-0----0-3-6-7-7-6-3-|

   N.C.                 N.C.
e|--------------------|--------------------|
B|--------------------|--------------------|
G|--------------------|--------------------|
D|--------------------|--------------------|
A|--------------------|--------------------|
E|-0----0-3-6-7-7-6-3-|-0----0-3-6-7-7-6-3-|

   Em                     N.C.
  4/4
[Gtr III]
e|---12-----------------|----------------------|
B|------12----12----13--|----------------7-----|
G|---------12----12-----|------------8-------8-|
D|----------------------|---9---10-x---x---x---|
A|----------------------|-6---7----------------|
E|-0--------------------|----------------------|

   N.C.
e|---7----------------------|-----|
B|--------------------------|-----|
G|------------7-7-----------|-----|
D|-----9----9-----7b9r(7)-5-|-----|
A|-7-----10-----------------|-----|
E|--------------------------|-----|

[2nd Chorus]
   Em                      A5/D5Bm
e|-12-12-12-12-12-12-12--|-------------------|
B|--x--x--x--x--x--x--x--|--------------8----|
G|-12-12-12-12-12-12-12--|------7-7-7-7-7-7--|
D|--x--x--x--x--x--x--x--|-14-7-0-0-0-0-0-0--|
A|--x--x--x--x--x--x--x--|-12-5-x------------|
E|-12-12-12-12-12-12-12--|-12-5-7------------|

   Em                      B A D  B
e|-12-12-12-12-12-12-12--|-------------------|
B|--x--x--x--x--x--x--x--|-------------------|
G|-12-12-12-12-12-12-12--|-8-6-11-8-8-8-8-8--|
D|--x--x--x--x--x--x--x--|-x-x--x-x-x-x-x-x--|
A|--x--x--x--x--x--x--x--|-x-x--x-x-x-x-x-x--|
E|-12-12-12-12-12-12-12--|-7-5-10-7-7-7-7-7--|

   Em                      A5/D5Bm
e|-12-12-12-12-12-12-12--|-------------------|
B|--x--x--x--x--x--x--x--|--------------8----|
G|-12-12-12-12-12-12-12--|------7-7-7-7-7-7--|
D|--x--x--x--x--x--x--x--|-14-7-0-0-0-0-0-0--|
A|--x--x--x--x--x--x--x--|-12-5-x------------|
E|-12-12-12-12-12-12-12--|-12-5-7------------|

   Em                      D               B
                          3/4
e|-12-12-12-12-12-12-12--|-----------------------------|
B|--x--x--x--x--x--x--x--|-----------------------------|
G|-12-12-12-12-12-12-12--|-11-11-11-11-11--8-8-8-8-8-8-|
D|--x--x--x--x--x--x--x--|--x--x--x--x--x--x-x-x-x-x-x-|
A|--x--x--x--x--x--x--x--|--x--x--x--x--x--x-x-7-x-x-x-|
E|-12-12-12-12-12-12-12--|-10-10-10-10-10--7-7-7-7-7-7-|

[Breakdown]
     Q=160
      A/E                      Bb/FG5/A  A/E            Bb/FG5/A
    23/8                               16/8
[Gtr III]
e|-----------------------------------|-------------------------|
B|o----------------------------------|------------------------o|
G|---6--6-6--6--6-6-6--6--6-6-7-6-0--|--6--6-6--6--6-6-7-6-0---|
D|---7--7-7--7--7-7-7--7--7-7-8-7-0--|--7--7-7--7--7-7-8-7-0---|
A|o--7--7-7--7--7-7-7--7--7-7-8-7-0--|--7--7-7--7--7-7-8-7-0--o|
E|-----------------------------------|-------------------------|

   Q=100
  9/16  6/8     2/4
e|-----|-------|-----|
B|-----|-------|-----|
G|-----|-------|-----|
D|-----|-------|-----|
A|-----|-------|-----|
E|-----|-------|-----|

  9/16  6/8     2/4
e|-----|-------|-----|
B|-----|-------|-----|
G|-----|-------|-----|
D|-----|-------|-----|
A|-----|-------|-----|
E|-----|-------|-----|

  9/16  6/8     2/4
e|-----|-------|-----|
B|-----|-------|-----|
G|-----|-------|-----|
D|-----|-------|-----|
A|-----|-------|-----|
E|-----|-------|-----|

                     Q=160
                      A/E
  9/16  6/8     5/1615/16
e|-----|-------|---|----------|
B|-----|-------|---|----------|
G|-----|-------|---|--6--6-6--|
D|-----|-------|---|--7--7-7--|
A|-----|-------|---|--7--7-7--|
E|-----|-------|---|----------|

   Q=90
   Bmadd11/F#
  4/4
e|-0--------|-(0)--------|-(0)--------|-(0)----|
B|-0--------|-(0)--------|-(0)--------|-(0)----|
G|-7--------|-(7)--------|-(7)--------|-(7)----|
D|-9--------|-(9)--------|-(9)--------|-(9)----|
A|-9--------|-(9)--------|-(9)--------|-(9)----|
E|----------|------------|------------|--------|

    >
e|-(0)--------|-(0)--------|-(0)--------|-(0)----|
B|-(0)--------|-(0)--------|-(0)--------|-(0)----|
G|-(7)--------|-(7)--------|-(7)--------|-(7)----|
D|-(9)--------|-(9)--------|-(9)--------|-(9)----|
A|-(9)--------|-(9)--------|-(9)--------|-(9)----|
E|------------|------------|------------|--------|

[Interlude]
    Q=100
    Emadd9
   9/16         6/8        2/4
[Gtr V]                                 4x                                       
e|-------------|----------|--------------|
B|o----7-----7-|-(7)------|-(7)---(7)---o|
G|-------0-----|----------|--------------|
D|---------5---|----------|--------------|
A|o-7----------|----------|-----------5-o|
E|-------------|----------|--------------|

   Emadd9
  9/16                  6/8         2/4
[Gtr V]
e|---------------------|-----------|--------------|
B|-----7-------------7-|--(7)------|--(7)---(7)---|
G|-----------0---------|-----------|--------------|
D|-----------------5---|-----------|--------------|
A|-7-------------------|-----------|------------5-|
E|---------------------|-----------|--------------|

[Gtr IV]
                           >
e|---------------------|-----------|--------------|
B|---------------------|-----------|--------------|
G|----11h12p11h12p11---|-(11)------|-(11)---------|
D|---------------------|-----------|--------------|
A|---------------------|-----------|--------------|
E|---------------------|-----------|--------------|

   Emadd9
  9/16                          6/8                2/4
[Gtr V]
e|-----------------------------|------------------|--------------|
B|-------------------7-----7---|-(7)--------------|-(7)----(7)---|
G|---------------------0-------|------------------|--------------|
D|-----------------------5-----|------------------|--------------|
A|--7--------------------------|------------------|------------5-|
E|-----------------------------|------------------|--------------|

[Gtr IV]
e|-----------------------------|------------------|--------------|
B|-----------------------------|------------------|--------------|
G|-11h12p11h12p11s9h11p======9s|==7----7s9----9p7-|--9---7-------|
D|-----------------------------|-----9------------|--------------|
A|-----------------------------|------------------|--------------|
E|-----------------------------|------------------|--------------|

   Emadd9
  9/16                     6/8             2/4
[Gtr V]
e|------------------------|---------------|-------------------|
B|----------------7-----7-|-(7)-----------|-(7)---------(7)---|
G|------------------0-----|---------------|-------------------|
D|--------------------5---|---------------|-------------------|
A|-7----------------------|---------------|-----------------5-|
E|------------------------|---------------|-------------------|

[Gtr IV]
                                       ~~~           ~
e|------------------------|---------------|-------------------|
B|------------------------|---------------|-------------------|
G|-9b10-9-7---7---7s9-----|-------9-8-(8)-|-12--9-12-9--------|
D|----------9---9---------|---------------|-------------------|
A|------------------------|---------------|-------------------|
E|------------------------|---------------|-------------------|

[Emadd9]
  9/16
[Gtr V]
e|---------------------------|
B|-----------7-------------7-|
G|-----------------0---------|
D|-----------------------5---|
A|-7-------------------------|
E|---------------------------|

[Gtr IV]
e|-----------------------3---|
B|---3p2-3p2-3p2p0-3p2p0-----|
G|---------------------------|
D|---------------------------|
A|---------------------------|
E|---------------------------|

  6/8                                2/4
e|----------------------------------|-------------------------|
B|-(7)------------------------------|-(7)--------------(7)----|
G|----------------------------------|-------------------------|
D|----------------------------------|-------------------------|
A|----------------------------------|----------------------5--|
E|----------------------------------|-------------------------|

e|----------------3---------------3-|--------------0----------|
B|--3p2-3p2-3p2p0---2h3p2h3-3p2p0---|--2--3-3p2-3----3--------|
G|----------------------------------|-------------------------|
D|----------------------------------|-------------------------|
A|----------------------------------|-------------------------|
E|----------------------------------|-------------------------|

[Emadd9]
  9/16                       6/8                        2/4
[Gtr V]
e|--------------------------|--------------------------|--------------|
B|------7-----------------7-|---------7------7-------7-|-^7-----(7)---|
G|---------0----------------|-----------0-------0------|-^0-----(0)---|
D|---------------5----------|-5------------5-------5---|--------------|
A|--7-----------------------|--------------------------|------------5-|
E|--------------------------|--------------------------|--------------|

[Gtr IV]
e|--------------------------|--------------------------|--------------|
B|-(3)----12h13-12h13p12-10-|---8tr10---8\-5-7-(7)-----|-----12-------|
G|--------------------------|--------------------------|--------------|
D|--------------------------|--------------------------|--------------|
A|--------------------------|--------------------------|--------------|
E|--------------------------|--------------------------|--------------|

[Emadd9]
  9/16                    6/8                                2/4
[Gtr V]
e|-----------------------|----------------------------------|------------------|
B|-----------7---------7-|-------------------7------7-----7-|-(7)--------(7)---|
G|---------------0-------|----------------------0-----0-----|------------------|
D|-------------------5---|--5---------------------5-----5---|------------------|
A|---7-------------------|----------------------------------|----------------5-|
E|-----------------------|----------------------------------|------------------|

e|-----------------------|----------------------------------|------------------|
B|-(12)-(12)---(12)\-----|-10p8h10p8-10s12-(12)-------------|-12--10-----------|
G|-----------------------|----------------------------------|---------12-------|
D|-----------------------|----------------------------------|------------------|
A|-----------------------|----------------------------------|------------------|
E|-----------------------|----------------------------------|------------------|

[Emadd9]
  9/16               6/8                  2/4
   Gtr V
e|------------------|--------------------|-----------------|
B|-----7---------7--|------7-----7-----7-|-(7)-------(7)---|
G|-------0----------|--------0-----0-----|-----------------|
D|------------5-----|--5-------5-----5---|-----------------|
A|-7----------------|--------------------|---------------5-|
E|------------------|--------------------|-----------------|
|
 | Gtr IV
e|------------------|--------------------|-----------------|
B|------------------|--------------------|-----------------|
G|----12-9h12-9-(9)-|-(9)----------------|-(9)--9-12-------|
D|------------------|--------------------|-----------------|
A|------------------|--------------------|-----------------|
E|------------------|--------------------|-----------------|

[Emadd9]
  9/16                  6/8                           2/4
[Gtr V]
e|---------------------|-----------------------------|-------------------------|
B|-----------7-------7-|------------7-----7-------7--|-(7)---------------(7)---|
G|--------------0------|--------------0-----0--------|-------------------------|
D|-----------------5---|---5------------5------5-----|-------------------------|
A|--7------------------|-----------------------------|-----------------------5-|
E|---------------------|-----------------------------|-------------------------|

[Gtr IV]
e|----10--12---10------|-------------------------10--|-12--10----10-(10)-------|
B|-11-------------11---|-(11)-(11)\-----------11-----|--------11---------------|
G|---------------------|-----------------------------|-------------------------|
D|---------------------|-----------------------------|-------------------------|
A|---------------------|-----------------------------|-------------------------|
E|---------------------|-----------------------------|-------------------------|

   Emadd9
  9/16                       6/8
[Gtr V]
e|--------------------------|--------------------------|
B|---------------7-------7--|-----7--------7-------7---|
G|------------------0-------|--------0--------0--------|
D|--------------------5-----|-5---------5--------5-----|
A|---7----------------------|--------------------------|
E|--------------------------|--------------------------|

[Gtr IV]
e|-----10-12-10----10-------|-------10-12-10-----------|
B|-/12----------11------11--|----12----------11\---0-0-|
G|--------------------------|--------------------------|
D|--------------------------|--------------------------|
A|--------------------------|--------------------------|
E|--------------------------|--------------------------|

  2/4
e|-------------------------------|
B|-(7)---------------------(7)---|
G|-------------------------------|
D|-------------------------------|
A|-----------------------------5-|
E|-------------------------------|

e|-------------------------------|
B|-------------------------------|
G|--9h11p9h11p9-12-8h9p8h9p=8----|
D|-------------------------------|
A|-------------------------------|
E|-------------------------------|

   Emadd9
  9/16
[Gtr V]
e|---------------------------------|
B|------------------7----------7---|
G|----------------------0----------|
D|---------------------------5-----|
A|--7------------------------------|
E|---------------------------------|

[Gtr IV]
e|---------------------------------|
B|---------------------------------|
G|---------------------------------|
D|-10p9h10p9----7s9----------------|
A|-----------10-------9-7----7h9---|
E|------------------------10-----8-|

  6/8                                         2/4
e|-------------------------------------------|-------------------|
B|---------7--------------7---------------7--|-(7)--------(7)----|
G|-----------0-------------------0-----------|-------------------|
D|---5------------5------------------5-------|-------------------|
A|-------------------------------------------|----------------5--|
E|-------------------------------------------|-------------------|

                                               TP
e|-------------------------------------------|-------------------|
B|-------------------------------------------|-------12----------|
G|---------------------------------9s==11----|-11--9----9--------|
D|-------------10---9-10h12p10p9-------------|-------------------|
A|-----10-12---------------------------------|-------------------|
E|-/12---------------------------------------|-------------------|

   Emadd9
  9/16               6/8                      2/4
[Gtr V]
e|------------------|------------------------|-----------------------|
B|--------7-------7-|-------7------7-------7-|-(7)-------------(7)---|
G|----------0-------|----------0------0------|-----------------------|
D|--------------5---|--5---------5-------5---|-----------------------|
A|-7----------------|------------------------|---------------------5-|
E|------------------|------------------------|-----------------------|

[Gtr IV
            \1_________/
e|------------------|------------------------|-----------------------|
B|---10-------------|------------------------|-----------------------|
G|-9----8-----------|------------------------|-11h12p11h12p11--------|
D|----------9-------|-(9)--(9)-------(9)-----|-----------------------|
A|------------------|------------------------|-----------------------|
E|------------------|------------------------|-----------------------|

   Emadd9
  9/16               6/8                 2/4
[Gtr V]
e|------------------|-------------------|--------------------------------------|
B|-----7-------7----|-----7-----7-----7-|-(7)----------------------------(7)---|
G|-------0----------|-------0-----0-----|--------------------------------------|
D|----------5-------|--5------5-----5---|--------------------------------------|
A|-7----------------|-------------------|------------------------------------5-|
E|------------------|-------------------|--------------------------------------|

[Gtr IV]
e|------------------|-------------------|--------------------------------------|
B|----10------------|-------------------|--------------------------------------|
G|---------12-11----|-------------------|--------------------------------------|
D|---------------12s|=14----------------|-----12p10h12p10s9h10-----------------|
A|------------------|-------------------|----------------------10p9-10p9-12----|
E|------------------|-------------------|--------------------------------------|

   Emadd9
  9/16                  6/8                    2/4
[Gtr V]
e|---------------------|----------------------|----------------|
B|------------7-----7--|--------7-----7-----7-|---(7)----(7)---|
G|--------------0------|----------0-----0-----|----------------|
D|----------------5----|---5--------5-----5---|----------------|
A|--7------------------|----------------------|--------------5-|
E|---------------------|----------------------|----------------|
[
[Gtr IV]
                           >
                           \1______________________/
e|---------------------|-<12>-----------------|-(<12>)---------|
B|----------------0----|-<12>-----------------|-(<12>)---------|
G|----------------0----|----------------------|----------------|
D|---------------------|----------------------|----------------|
A|---------------------|----------------------|----------------|
E|-10-12-(12)----------|----------------------|----------------|

   Emadd9
  9/16                 6/8                    2/4
[Gtr V]
e|--------------------|----------------------|-----------------------|
B|------------7-----7-|--------7-----7-----7-|-(7)-------------(7)---|
G|--------------0-----|----------0-----0-----|-----------------------|
D|----------------5---|---5--------5-----5---|-----------------------|
A|--7-----------------|----------------------|---------------------5-|
E|--------------------|----------------------|-----------------------|

[Gtr IV]
    >
    \1____________________/
                                                            TP
e|-<5>--(<5>)---------|-(<5>)----------------|-----------------------|
B|-<5>--(<5>)---------|-(<5>)----------------|-10h12-10h12-12--------|
G|--------------------|----------------------|-----------------------|
D|--------------------|----------------------|-----------------------|
A|--------------------|----------------------|-----------------------|
E|--------------------|----------------------|-----------------------|

   Emadd9
  9/16           6/8                      2/4
[Gtr V]
e|--------------|------------------------|-------------|
B|-----7------7-|---------7-----7------7-|-(7)---(7)---|
G|-------0------|-----------0------0-----|-------------|
D|----------5---|---5---------5------5---|-------------|
A|--7-----------|------------------------|-----------5-|
E|--------------|------------------------|-------------|

[Gtr IV]
    TP                  TP                  TP
e|--------------|------------------------|-------------|
B|-12------10---|-(10)-10----------------|-------------|
G|--------------|-----------------12-----|-12----------|
D|--------------|------------------------|-------------|
A|--------------|------------------------|-------------|
E|--------------|------------------------|-------------|

   Emadd9
  9/16              6/8                   2/4
[Gtr V]
e|-----------------|---------------------|---------------|
B|---------7-----7-|-------7-----7-----7-|-(7)----(7)----|
G|-----------0-----|---------0-----0-----|---------------|
D|-------------5---|---5-------5-----5---|---------------|
A|--7--------------|---------------------|-------------5-|
E|-----------------|---------------------|---------------|

[Gtr IV]
    TP  TP             TP                   TP
e|-----------------|---------------------|---------------|
B|-----------------|---------------------|---------------|
G|-11-(11)---------|-(11)----------------|-11---9-11--11-|
D|-----------------|---------------------|---------------|
A|-----------------|---------------------|---------------|
E|-----------------|---------------------|---------------|

   Emadd9
  9/16                 6/8                  2/4
[Gtr V]
e|--------------------|--------------------|---------------|
B|------------7-----7-|------7-----7-----7-|-(7)-----(7)---|
G|--------------0-----|--------0-----0-----|---------------|
D|----------------5---|--5-------5-----5---|---------------|
A|--7-----------------|--------------------|-------------5-|
E|--------------------|--------------------|---------------|

[Gtr IV]
e|--------------------|--------------------|---------------|
B|--------------------|--------------------|---------------|
G|-12-9-11----------9-|-(9)----------------|-11--11------9-|
D|---------12---------|--------------------|---------------|
A|--------------------|--------------------|---------------|
E|--------------------|--------------------|---------------|

   Emadd9
  9/16            6/8                   2/4
[Gtr V]
e|---------------|---------------------|----------------|
B|-------7-----7-|-------7-----7-----7-|--(7)----(7)----|
G|---------0-----|---------0-----0-----|----------------|
D|-----------5---|---5-------5-----5---|----------------|
A|--7------------|---------------------|--------------5-|
E|---------------|---------------------|----------------|

[Gtr IV]
e|---------------|---------------------|----------------|
B|---------------|---------------------|----------------|
G|-12-12---------|-(12)----------------|-(12)---(12)-11-|
D|---------------|---------------------|----------------|
A|---------------|---------------------|----------------|
E|---------------|---------------------|----------------|

   Emadd9
  9/16              6/8                   2/4
[Gtr V]
e|-----------------|---------------------|----------------|
B|---------7-----7-|-------7-----7-----7-|--(7)----(7)----|
G|-----------0-----|---------0-----0-----|----------------|
D|-------------5---|---5-------5-----5---|----------------|
A|--7--------------|---------------------|--------------5-|
E|-----------------|---------------------|----------------|
|
[Gtr IV]
e|-----------------|---------------------|----------------|
B|-10-(10)---------|-(10)----------------|-(10)---(10)----|
G|-----------------|---------------------|-------------12-|
D|-----------------|---------------------|----------------|
A|-----------------|---------------------|----------------|
E|-----------------|---------------------|----------------|

   Emadd9
  9/16              6/8                            2/4
   Gtr V
e|-----------------|------------------------------|-----------------|
B|---------7-----7-|-----------7-----7-----7------|-(7)------(7)----|
G|-----------0-----|-------------0-----0----------|-----------------|
D|-------------5---|---5-----------5-----5--------|-----------------|
A|--7--------------|------------------------------|---------------5-|
E|-----------------|------------------------------|-----------------|

[Gtr IV]
e|-----------------|------------------------------|-----------------|
B|-12-(12)---------|-(12)-(12)---------------10p8h|=10--/11---------|
G|-----------------|------------------------------|--------------12-|
D|-----------------|------------------------------|-----------------|
A|-----------------|------------------------------|-----------------|
E|-----------------|------------------------------|-----------------|

   Emadd9
  9/16              6/8                            2/4
[Gtr V]
e|-----------------|------------------------------|------------------------|
B|------7--------7-|--------7-------------7-----7-|--(7)-------------(7)---|
G|----------0------|--------------0---------0-----|------------------------|
D|-------------5---|---5----------------5-----5---|------------------------|
A|--7--------------|------------------------------|----------------------5-|
E|-----------------|------------------------------|------------------------|

[Gtr IV]
e|-----------------|------------------------------|------------------------|
B|-10--------------|------------------------------|------------------------|
G|-----12-(12)-----|-(12)--11h12p11h12-11---------|-(11)-9h11p9h11-9-11----|
D|-----------------|------------------------------|------------------------|
A|-----------------|------------------------------|------------------------|
E|-----------------|------------------------------|------------------------|

   Emadd9
  9/16                   6/8
[Gtr V]
e|----------------------|------------------------------------|
B|-------------7------7-|---------------7---------7--------7-|
G|---------------0------|-----------------0-----------0------|
D|------------------5---|--5-----------------5-----------5---|
A|--7-------------------|------------------------------------|
E|----------------------|------------------------------------|

e|----------------------|------------------------------------|
B|----------------------|------------------------------------|
G|-11b12r(11)-11-9-11---|-11---11-9-(9)----------------------|
D|----------------------|----9--------------11b12---(11)-----|
A|----------------------|------------------------------------|
E|----------------------|------------------------------------|

  2/4
e|---------------------------|
B|-(7)----------------(7)----|
G|---------------------------|
D|---------------------------|
A|-------------------------5-|
E|---------------------------|
|
e|---------------------------|
B|---------------------------|
G|---------------------------|
D|--9h10p9----9--------------|
A|---------10---10-----7h9---|
E|-----------------10--------|

   Emadd9
  9/16                       6/8                           2/4
[Gtr V]
e|--------------------------|-----------------------------|---------------|
B|-----------------7------7-|----------7-------7------7---|-(7)-----(7)---|
G|-------------------0------|-------------0------0--------|---------------|
D|---------------------5----|--5------------5-------5-----|---------------|
A|--7-----------------------|-----------------------------|-------------5-|
E|--------------------------|-----------------------------|---------------|

[Gtr IV]
e|--------------------------|-----------------------------|---------------|
B|--------------------------|-----------------------------|---------------|
G|--------------------------|----------------------11-----|-----12--------|
D|--------------------------|-----------------12--------9-|-(9)-----------|
A|----10-9h10p9----9--------|-------10---14---------------|---------------|
E|-12-----------12-------12-|-10-12-----------------------|---------------|

   Emadd9
  9/16               6/8                  2/4
[Gtr V]
e|------------------|--------------------|--------------|
B|---------7------7-|------7-----7-----7-|--(7)---(7)---|
G|------------0-----|--------0-----0-----|--------------|
D|--------------5---|--5-------5-----5---|--------------|
A|---7--------------|--------------------|------------5-|
E|------------------|--------------------|--------------|

[Gtr IV]
e|------------------|--------------------|--------------|
B|------------------|--------------------|--------------|
G|-(12)-------------|-12--14-------------|-(14)---------|
D|-----------12-----|--------------------|--------------|
A|------14----------|--------------------|--------------|
E|------------------|--------------------|--------------|

   Emadd9
  9/16            6/8                     2/4
[Gtr V]
e|---------------|-----------------------|-------------|
B|------7------7-|--------7------7-----7-|-(7)---(7)---|
G|--------0------|-----------0-----0-----|-------------|
D|-----------5---|-5-----------5-----5---|-------------|
A|--7------------|-----------------------|-----------5-|
E|---------------|-----------------------|-------------|

[Gtr IV]
e|---------------|-----------------------|-------------|
B|---------------|---12-(12)-------------|-------------|
G|----9-----11---|-9---------------------|-------12----|
D|-10------------|-----------------------|-------------|
A|---------------|-----------------------|-------------|
E|---------------|-----------------------|-------------|

   Emadd9
  9/16                   6/8                   2/4
[Gtr V]
e|----------------------|---------------------|-----------------------|
B|-----------7--------7-|-------7-----7-----7-|-(7)----------(7)------|
G|---------------0------|---------0-----0-----|-----------------------|
D|------------------5---|---5-------5-----5---|-----------------------|
A|-7--------------------|---------------------|--------------------5--|
E|----------------------|---------------------|-----------------------|

[Gtr IV]
e|----------------------|---------------------|-----------------------|
B|---/10-10-------------|---------------------|-----------------------|
G|----------11-(11)-----|-(11)----------------|--9---(9)-(9)s11--(11)-|
D|----------------------|---------------------|-----------------------|
A|----------------------|---------------------|-----------------------|
E|----------------------|---------------------|-----------------------|

   Emadd9
  9/16                   6/8                          2/4
[Gtr V]
e|----------------------|----------------------------|-------------------|
B|-----------7--------7-|--------7--------7--------7-|-(7)---------(7)---|
G|-------------0--------|-----------0---------0------|-------------------|
D|----------------5-----|---5-----------5--------5---|-------------------|
A|---7------------------|----------------------------|-----------------5-|
E|----------------------|----------------------------|-------------------|

[Gtr IV]
e|----------------------|----------------------------|-------------------|
B|----------------------|----------------------------|-------------------|
G|-(11)-(11)s9---(9)s11-|-(11)-9---(9)s11---(11)s9---|-11--(11)s9-/11----|
D|----------------------|----------------------------|-------------------|
A|----------------------|----------------------------|-------------------|
E|----------------------|----------------------------|-------------------|

   Emadd9
  9/16                   6/8                          2/4
[Gtr V]
e|----------------------|----------------------------|-------------------|
B|-----------7--------7-|--------7--------7--------7-|-(7)---------(7)---|
G|-------------0--------|-----------0---------0------|-------------------|
D|----------------5-----|---5-----------5--------5---|-------------------|
A|---7------------------|----------------------------|-----------------5-|
E|----------------------|----------------------------|-------------------|

e|----------------------|----------------------------|-------------------|
B|----------------------|----------------------------|-------------------|
G|-(11)-(11)s9---(9)s11-|-(11)-9---(9)s11---(11)s9---|-11--(11)s9-/11----|
D|----------------------|----------------------------|-------------------|
A|----------------------|----------------------------|-------------------|
E|----------------------|----------------------------|-------------------|

   Emadd9
  9/16                 6/8                          2/4
[Gtr V]
e|--------------------|----------------------------|-------------------|
B|---------7--------7-|--------7--------7--------7-|-(7)---------(7)---|
G|-----------0--------|-----------0---------0------|-------------------|
D|--------------5-----|---5-----------5--------5---|-------------------|
A|--7-----------------|----------------------------|-----------------5-|
E|--------------------|----------------------------|-------------------|

e|--------------------|----------------------------|-------------------|
B|--------------------|----------------------------|-------------------|
G|-11-(11)s9---(9)s11-|-(11)-9---(9)s11---(11)s9---|-11--(11)s9-/11----|
D|--------------------|----------------------------|-------------------|
A|--------------------|----------------------------|-------------------|
E|--------------------|----------------------------|-------------------|

   Emadd9
  9/16                 6/8                          2/4
[Gtr V]
e|--------------------|----------------------------|-------------------|
B|---------7--------7-|--------7--------7--------7-|-(7)---------(7)---|
G|-----------0--------|-----------0---------0------|-------------------|
D|--------------5-----|---5-----------5--------5---|-------------------|
A|--7-----------------|----------------------------|-----------------5-|
E|--------------------|----------------------------|-------------------|

e|--------------------|----------------------------|-------------------|
B|--------------------|----------------------------|-------------------|
G|-11-(11)s9---(9)s11-|-(11)-9---(9)s11---(11)s9---|-11--(11)s9-/11----|
D|--------------------|----------------------------|-------------------|
A|--------------------|----------------------------|-------------------|
E|--------------------|----------------------------|-------------------|

   Emadd9
  9/16                 6/8                          2/4
[Gtr V]
e|--------------------|----------------------------|-------------------|
B|---------7--------7-|--------7--------7--------7-|-(7)---------(7)---|
G|-----------0--------|-----------0---------0------|-------------------|
D|--------------5-----|---5-----------5--------5---|-------------------|
A|--7-----------------|----------------------------|-----------------5-|
E|--------------------|----------------------------|-------------------|

e|--------------------|----------------------------|-------------------|
B|--------------------|----------------------------|-------------------|
G|-11-(11)s9---(9)s11-|-(11)-9---(9)s11---(11)s9---|-11--(11)s9-/11----|
D|--------------------|----------------------------|-------------------|
A|--------------------|----------------------------|-------------------|
E|--------------------|----------------------------|-------------------|

[Bridge]
     Emadd9
    9/16         6/8                  2/4
[Gtr V]                                                (8x)                                             
e|-------------|--------------------|------------------|
B|o----7-----7-|--7---7-----7-----7-|--7--------(7)---o|
G|-------0-----|--0-----0-----0-----|--0--------(0)----|
D|---------5---|----------5-----5---|------------------|
A|o-7----------|--------------------|---------------5-o|
E|-------------|--------------------|------------------|

[Gtr VI]                                             (8x)                               
e|-------------|--------------------|------------------|
B|o------------|--------------------|-----------------o|
G|---------7---|--------------------|------------------|
D|-------9---7-|-(7)----------------|-(7)-----7--9--0--|
A|o------------|--------------------|------10---------o|
E|-------------|--------------------|------------------|
                                                                   
    Emadd9                                                        Q=145
    9/16              6/8                   2/4                   4/4
[Gtr V]                                                             9x               
e|------------------|---------------------|--------------------||-----|
B|o------7--------7-|---7---7-----7-----7-|---7---------(7)---o||-----|
G|----------0-------|---0-----0-----0-----|---0---------(0)----||-----|
D|-------------5----|-----------5-----5---|--------------------||-----|
A|o--7--------------|---------------------|-----------------5-o||-----|
E|------------------|---------------------|--------------------||-----|

[Gtr VI]                                                              
e|------------------|---------------------|--------------------||-----|
B|o--------15-17----|---------------------|-------------------o||-----|
G|------16-------14-|-(14)----------------|-(14)-----14-16--7--||-----|
D|--14--------------|---------------------|-------17-----------||-----|
A|o-----------------|---------------------|-------------------o||-----|
E|------------------|---------------------|--------------------||-----|

[3rd Chorus]
   Em                      A5/D5Bm
  4/4
[Gtr III]
e|-12-12-12-12-12-12-12--|-------------------|
B|--x--x--x--x--x--x--x--|--------------8----|
G|-12-12-12-12-12-12-12--|------7-7-7-7-7-7--|
D|--x--x--x--x--x--x--x--|-14-7-0-0-0-0-0-0--|
A|--x--x--x--x--x--x--x--|-12-5-x------------|
E|-12-12-12-12-12-12-12--|-12-5-7------------|

   Em                      B A D  B
e|-12-12-12-12-12-12-12--|-------------------|
B|--x--x--x--x--x--x--x--|-------------------|
G|-12-12-12-12-12-12-12--|-8-6-11-8-8-8-8-8--|
D|--x--x--x--x--x--x--x--|-x-x--x-x-x-x-x-x--|
A|--x--x--x--x--x--x--x--|-x-x--x-x-x-x-x-x--|
E|-12-12-12-12-12-12-12--|-7-5-10-7-7-7-7-7--|

   Em                      A5/D5Bm
e|-12-12-12-12-12-12-12--|-------------------|
B|--x--x--x--x--x--x--x--|--------------8----|
G|-12-12-12-12-12-12-12--|------7-7-7-7-7-7--|
D|--x--x--x--x--x--x--x--|-14-7-0-0-0-0-0-0--|
A|--x--x--x--x--x--x--x--|-12-5-x------------|
E|-12-12-12-12-12-12-12--|-12-5-7------------|

   Em                      B A D  B
e|-12-12-12-12-12-12-12--|-------------------|
B|--x--x--x--x--x--x--x--|-------------------|
G|-12-12-12-12-12-12-12--|-8-6-11-8-8-8-8-8--|
D|--x--x--x--x--x--x--x--|-x-x--x-x-x-x-x-x--|
A|--x--x--x--x--x--x--x--|-x-x--x-x-x-x-x-x--|
E|-12-12-12-12-12-12-12--|-7-5-10-7-7-7-7-7--|

   Em                      A5/D5Bm
e|-12-12-12-12-12-12-12--|-------------------|
B|--x--x--x--x--x--x--x--|--------------8----|
G|-12-12-12-12-12-12-12--|------7-7-7-7-7-7--|
D|--x--x--x--x--x--x--x--|-14-7-0-0-0-0-0-0--|
A|--x--x--x--x--x--x--x--|-12-5-x------------|
E|-12-12-12-12-12-12-12--|-12-5-7------------|

   Em                      B A D  B
e|-12-12-12-12-12-12-12--|-------------------|
B|--x--x--x--x--x--x--x--|-------------------|
G|-12-12-12-12-12-12-12--|-8-6-11-8-8-8-8-8--|
D|--x--x--x--x--x--x--x--|-x-x--x-x-x-x-x-x--|
A|--x--x--x--x--x--x--x--|-x-x--x-x-x-x-x-x--|
E|-12-12-12-12-12-12-12--|-7-5-10-7-7-7-7-7--|

   Em                      A5/D5Bm
e|-12-12-12-12-12-12-12--|-------------------|
B|--x--x--x--x--x--x--x--|--------------8----|
G|-12-12-12-12-12-12-12--|------7-7-7-7-7-7--|
D|--x--x--x--x--x--x--x--|-14-7-0-0-0-0-0-0--|
A|--x--x--x--x--x--x--x--|-12-5-x------------|
E|-12-12-12-12-12-12-12--|-12-5-7------------|

   Em                      D                 B
                          7/8
e|-12-12-12-12-12-12-12--|-----------------------------------|
B|--x--x--x--x--x--x--x--|-----------------------------------|
G|-12-12-12-12-12-12-12--|-11-11-11-11-11-11-8-8-8-8-8-8-8-8-|
D|--x--x--x--x--x--x--x--|--x--x--x--x--x--x-x-x-x-x-x-x-x-x-|
A|--x--x--x--x--x--x--x--|--x--x--x--x--x--x-x-x-7-x-x-x-x-x-|
E|-12-12-12-12-12-12-12--|-10-10-10-10-10-10-7-7-7-7-7-7-7-7-|

[Outro]("Con Safo")
   N.C.
  10/4
[Gtr V]
e|-12-------------------------8-10-8---11---12----|
B|----8------7-8-7-----10-8-7--------7----8----10-|
G|------9----------8-7----------------------------|
D|--------10--------------------------------------|
A|------------------------------------------------|
E|------------------------------------------------|

   N.C.
e|-12-------------------------8-10-8---11---12------|
B|----8------7-8-7-----10-8-7--------7----8----10---|
G|------9----------8-7------------------------------|
D|--------10----------------------------------------|
A|--------------------------------------------------|
E|--------------------------------------------------|

   N.C.
  10/4
   Gtr V
e|-12-------------------------8-10-8---11---12----|
B|----8------7-8-7-----10-8-7--------7----8----10-|
G|------9----------8-7----------------------------|
D|--------10--------------------------------------|
A|------------------------------------------------|
E|------------------------------------------------|

   N.C.
e|-12-------------------------8-10-8---11---12------|
B|----8------7-8-7-----10-8-7--------7----8----10---|
G|------9----------8-7------------------------------|
D|--------10----------------------------------------|
A|--------------------------------------------------|
E|--------------------------------------------------|

   N.C.
  10/4
[Gtr V]
e|-12-------------------------8-10-8---11---12----|
B|----8------7-8-7-----10-8-7--------7----8----10-|
G|------9----------8-7----------------------------|
D|--------10--------------------------------------|
A|------------------------------------------------|
E|------------------------------------------------|

   N.C.
e|-12-------------------------8-10-8---11---12------|
B|----8------7-8-7-----10-8-7--------7----8----10---|
G|------9----------8-7------------------------------|
D|--------10----------------------------------------|
A|--------------------------------------------------|
E|--------------------------------------------------|

   N.C.
  10/4
[Gtr V]
e|-12-------------------------8-10-8---11---12----|
B|----8------7-8-7-----10-8-7--------7----8----10-|
G|------9----------8-7----------------------------|
D|--------10--------------------------------------|
A|------------------------------------------------|
E|------------------------------------------------|

   N.C.
e|-12-------------------------8-10-8---11---12------|
B|----8------7-8-7-----10-8-7--------7----8----10---|
G|------9----------8-7------------------------------|
D|--------10----------------------------------------|
A|--------------------------------------------------|
E|--------------------------------------------------|

   N.C.
  10/4
[Gtr V]
e|-12-------------------------8-10-8---11---12----|
B|----8------7-8-7-----10-8-7--------7----8----10-|
G|------9----------8-7----------------------------|
D|--------10--------------------------------------|
A|------------------------------------------------|
E|------------------------------------------------|

   N.C.
e|-12-------------------------8-10-8---11---12------|
B|----8------7-8-7-----10-8-7--------7----8----10---|
G|------9----------8-7------------------------------|
D|--------10----------------------------------------|
A|--------------------------------------------------|
E|--------------------------------------------------|

   N.C.
  10/4
[Gtr V]
e|-12-------------------------8-10-8---11---12----|
B|----8------7-8-7-----10-8-7--------7----8----10-|
G|------9----------8-7----------------------------|
D|--------10--------------------------------------|
A|------------------------------------------------|
E|------------------------------------------------|

   N.C.
e|-12-------------------------8-10-8---11---12------|
B|----8------7-8-7-----10-8-7--------7----8----10---|
G|------9----------8-7------------------------------|
D|--------10----------------------------------------|
A|--------------------------------------------------|
E|--------------------------------------------------|

   N.C.
  10/4
[Gtr V]
e|-12-------------------------8-10-8---11---12----|
B|----8------7-8-7-----10-8-7--------7----8----10-|
G|------9----------8-7----------------------------|
D|--------10--------------------------------------|
A|------------------------------------------------|
E|------------------------------------------------|

   N.C.
e|-12-------------------------8-10-8---11---12------|
B|----8------7-8-7-----10-8-7--------7----8----10---|
G|------9----------8-7------------------------------|
D|--------10----------------------------------------|
A|--------------------------------------------------|
E|--------------------------------------------------|

   N.C.
  10/4
[Gtr V]
e|-12-------------------------8-10-8---11---12----|
B|----8------7-8-7-----10-8-7--------7----8----10-|
G|------9----------8-7----------------------------|
D|--------10--------------------------------------|
A|------------------------------------------------|
E|------------------------------------------------|

   N.C.
e|-12-------------------------8-10-8---11---12------|
B|----8------7-8-7-----10-8-7--------7----8----10---|
G|------9----------8-7------------------------------|
D|--------10----------------------------------------|
A|--------------------------------------------------|
E|--------------------------------------------------|

   N.C.
  10/4
[Gtr V]
e|-12-------------------------8-10-8---11---12----|
B|----8------7-8-7-----10-8-7--------7----8----10-|
G|------9----------8-7----------------------------|
D|--------10--------------------------------------|
A|------------------------------------------------|
E|------------------------------------------------|

   N.C.
e|-12-------------------------8-10-8---11---12------|
B|----8------7-8-7-----10-8-7--------7----8----10---|
G|------9----------8-7------------------------------|
D|--------10----------------------------------------|
A|--------------------------------------------------|
E|--------------------------------------------------|

   N.C.
  10/4
[Gtr V]
e|-12-------------------------8-10-8---11---12----|
B|----8------7-8-7-----10-8-7--------7----8----10-|
G|------9----------8-7----------------------------|
D|--------10--------------------------------------|
A|------------------------------------------------|
E|------------------------------------------------|

   N.C.
e|-12-------------------------8-10-8---11---12------|
B|----8------7-8-7-----10-8-7--------7----8----10---|
G|------9----------8-7------------------------------|
D|--------10----------------------------------------|
A|--------------------------------------------------|
E|--------------------------------------------------|

   N.C.
  10/4
[Gtr V]
e|-12-------------------------8-10-8---11---12----|
B|----8------7-8-7-----10-8-7--------7----8----10-|
G|------9----------8-7----------------------------|
D|--------10--------------------------------------|
A|------------------------------------------------|
E|------------------------------------------------|

   N.C.
e|-12-------------------------8-10-8---11---12------|
B|----8------7-8-7-----10-8-7--------7----8----10---|
G|------9----------8-7------------------------------|
D|--------10----------------------------------------|
A|--------------------------------------------------|
E|--------------------------------------------------|

   N.C.
  10/4
[Gtr V]
e|-12-------------------------8-10-8---11---12----|
B|----8------7-8-7-----10-8-7--------7----8----10-|
G|------9----------8-7----------------------------|
D|--------10--------------------------------------|
A|------------------------------------------------|
E|------------------------------------------------|

   N.C.
e|-12-------------------------8-10-8---11---12------|
B|----8------7-8-7-----10-8-7--------7----8----10---|
G|------9----------8-7------------------------------|
D|--------10----------------------------------------|
A|--------------------------------------------------|
E|--------------------------------------------------|

   N.C.
  10/4
[Gtr V]
e|-12-------------------------8-10-8---11---12----|
B|----8------7-8-7-----10-8-7--------7----8----10-|
G|------9----------8-7----------------------------|
D|--------10--------------------------------------|
A|------------------------------------------------|
E|------------------------------------------------|

   N.C.
e|-12-------------------------8-10-8---11---12------*|
B|----8------7-8-7-----10-8-7--------7----8----10---*|
G|------9----------8-7------------------------------*|
D|--------10----------------------------------------*|
A|--------------------------------------------------*|
E|--------------------------------------------------*|

************************************

| h    Hammer-on
| p    Pull-off
| (n)  Ghost note
| b    Bend
| x    Dead note
| PM   Palm mute
| ~    Vibrato
| >    Accented note
| \    Slide down
| tr   Trill
| /    Slide up
| tp   Tremolo picking
| *    Natural harmonic

************************************
Suggest correction
comments
print report bad tab
15 comments total. Showing first comments.
0 reply
heyyy wrestler 30 Mar 06, 2005 07:00 PM

As good as this is, you did not write this. You stole this from someone else's PowerTab.

0 reply
Something_Vague 380 Mar 06, 2005 07:00 PM

I didn't take credit it on it ;)

0 reply
big gun 10 Mar 07, 2005 07:00 PM

you are god

guest
You may want to rate the tab now too:
select rating
Wanna post a correction for this tab? Suggest correction