Oops, an error
Loading. Please wait.

Day Of The Baphomets Bass Tab

version 1
version 1

Whole song

Interactive

27,443 views 18 this week
11 commentsread comments
1 2 3 4 5
excellent!
x 15
add to favorites
launch autoscroll
font size
0
reset
guitar tuner
Tab Pro tools
  • play this tab
  • loop segment
  • change instrument
  • show fretboard
  • metronome
×
Best way to learn
"Day Of The Baphomets"
Autoscroll
slow
fast
+/-
esc
set tempo
stop
Contributor
Difficulty
advanced
Tabbed by : Austin Little / Hikaru X

This is my first tab ever. I have been playing bass for about 4 months now, but the 
I am able to do this is because I have extensive music theory knowledge. The tab is about 
complete, and took me about 4 hours. I will finish this summer some time.




G|-------------------------9---10----------10--10-9-12-----|
D|----------------------7--------------(7)-----------------|
A|------------------7-8------------------------------------|
D|-0----0----0---0-----------------------------------------|


G|--12-10----10-12-10-12/14-14----12-14-12-10--12-10-------|
D|--------12----------------------------------------12-10--|
A|---------------------------------------------------------|
D|---------------------------------------------------------|


G|----------------------------------------------------------|
D|------------------/13^-12---------------------------------|
A|-----12-13-12-12-------------------------------13-12------|
D|--0-------------------------------------------------------|


G|----------------------------------------------------------|
D|--------------7--------8-7--------8-7-8-----5------5\-----|
A|10-13-12-10-8---10-8-7-----10-8-7--------------3----------|
D|-----------------------------------------0----------------|


G|----------------------------------------------5-7-5-7^----|
D|-3-3---3--------------------------3----5-6-7--------------|
A|---------5-3h4-0h1/4/7---3-4-5-5----3---------------------|
D|-----------------------5----------------------------------|


G|-7---7--5--------6^-5----5--------------------------------|
D|-----------7-6-5------7-6--7-6-5---5----------------------|
A|---------------------------------7---8\7-6-5-6-5-6-5-4----|
D|----------------------------------------------------------|


G|------------------------------------------------------------|
D|------------------------------------------------------------|
A|-3-2-1------5-5-----3-3-3-----------------------------------|
D|-------0--------0-0-------0-3-0------------0--0-------------|


G|----------------------------------------------------------|
D|-----------------3----------------------------------------|
A|---3-3-4-4-5-5-5---5------3-5-3-----3-5-3-0-3--3----------|
D|4---------------------0----------0---------------0--0-----|


G|---------------------5-------------5/7-6-5-5--------------|
D|---------------5-6-7--7-----5-6-7------------7-6-5/7------|
A|3-4-5-6/8-6-------------5-5-------------------------------|
D|-------------0--------------------------------------------|


G|-----------------------5-7-9-9/12-10----------------------|
D|-7-5-7-5--------5-7-8----------------12-12-11-10----------|
A|----------8-7-8----------------------------------13-12----|
D|----------------------------------------------------------|


G|----------------6^7-7--10--12--10-13^14-------------------|
D|--------3/6-7-7----------------------------12---10-11-12--|
A|-10\5-6---------------------------------------8-----------|
D|----------------------------------------------------------|


G|----12^-10------10----12\10--------------10-12-10^--------|
D|-10---------12^----12-------12-10-11-12-------------------|
A|----------------------------------------------------------|
D|----------------------------------------------------------|


G|----10-10-11^---------------------------------------------|
D|-12------------12-12--------10^---12---12^-10-------------|
A|----------------------10-12----12--------------12-8--7----|
D|----------------------------------------------------------|


G|----------------------------------------------------------|
D|----8-11^-----------------------------------------1012^13-|
A|-10-------8-9-10-12^-12-10-8-7-5-6-7-8-9-10-8-12----------|
D|----------------------------------------------------------|





0:57 //

G|---75-5-------------|
D|-----7-757353-3-----|
A|--5----------5-535--|
D|--------------------| x 12


1:25 / "Sawing off the pavement" //


G|-----------------|
D|-----------------|
A|--5--5--5--5--5--|
D|-----------------| x 12


1:56 / "I gotta prayer that will make you theirs now" //


G|-----777---------------|       G|-----777-------77--777-|
D|----7----5-77----------|       D|---7-----5-77----------|
A|--5-----------8888877--|       A|-5---------------------|
D|-----------------------| x 11  D|-----------------------| x 1


2:19 //


G|---75-5-------------|
D|-----7-757353-3-----|
A|--5----------5-535--|
D|--------------------| x 8


2:45 / "Fondling with pitchforks" //


G|-----------------|
D|-----------------|
A|--5--5--5--5--5--|
D|-----------------| x 12


3:19 / "I gotta prayer that will make you theirs now" //


G|------777---------------|       G|-----777-------77--777-|
D|----7-----5-77----------|       D|---7-----5-77----------|
A|-=5------------8888877--|       A|-5---------------------|
D|------------------------| x 11  D|-----------------------| x 1


3:35 / "In my sight" //


G|----------------------------------|       |-----|
D|--0-3-1-0-1-0-0-0---0---0---0-1-3-|       |--0--|
A|------------------3---3---3-------|       |-----|
D|----------------------------------| x 11  |-----|


4:06 / "How long must we fold by hand" //


G|----------------|--------------------|
D|----------------|---------------235--|
A|--5--5--5--5-3--|--5--5--5--5535-----|
D|----------------|--------------------| x 1

G|----------------|-----------75-5-----|
D|----------------|-------------7-753--|
A|--5--5--5--5-3--|--5--5--5-----------|
D|----------------|--------------------| x 1

G|----------------|--------------------|
D|----------------|---------------235--|
A|--5--5--5--5-3--|--5--5--5--5535-----|
D|----------------|--------------------| x 1

G|----------------|-----------75-5-----|
D|----------------|-------------7-753--|
A|--5--5--5--5-3--|--5--5--5-----------|
D|----------------|--------------------| x 1


4:29 / "Poachers in your home" //


G|--------------|
D|--------------|
A|--5--5--5--5--|
D|--------------| x 4


4:39 //


G|-------------42------------2-2-2--|--------------------------|
D|----------242--42--------24-4-4---|--------------------------|
A|--2-2-0-2--------2-03-4-----------|------0-2-4-2-------------|
D|----------------------------------|--4444--------------------| x 8


5:38 / "How long must we fold by hand" //


G|------------------------------------|------------------------------------|
D|------------------------------------|------------------------------------|
A|--2--2--2--20-232--2--2--2--20-232--|------------------------------------|
D|------------------------------------|--6--6--6--64-676--6--6--6--64-676--| x 4


6:20 //


G|--------------------------|      |-------------|
D|--------------------------|      |-------------|
A|--7-7-7-7-7--7-7-7-7-7-7--|      |--7-7-7-7-7--|
D|--------------------------| x 15 |-------------| x 1


7:10 / "Fold the river by the lips"


G|--------------------------|     |-------------------------|
D|---------2---------2------|     |---------5--------5------|
A|---------------------0-2--|     |--------------------3-5--|
D|--2-22222--2-2-2222-------| x 2 |--5-55555--5-55555-------| x 2  x  7

G|--------------------------|     |-----------------------------------|
D|---------2---------2------|     |---------5-----------5555----------|
A|---------------------0-2--|     |-------------------------33335555--|
D|--2-22222--2-2-2222-------| x 2 |--5-55555--5-5-555555--------------|   x 1


8:44 //


G|--------------------------|
D|--------------------------|
A|--7-7-7-7-7--7-7-7-7-7-7--|
D|--------------------------| x 16


9:35 //


G|----------------------------------------|
D|--2---1---------121---------------------|
A|----------3---23---320--------0---1-----|
D|----------------------5---6-------------|


9:48 / Percussion Solo //


G|-----------------|
D|-----------------|
A|--2--2--2--2--2--|
D|-----------------| x 20


11:05 / "How long must we fold our hands" //


G|------------------------------------|------------------------------------|
D|------------------------------------|------------------------------------|
A|--2--2--2--20-232--2--2--2--20-232--|------------------------------------|
D|------------------------------------|--6--6--6--64-676--6--6--6--64-676--| x 4


11:46 / "Poachers in your home" //


G|--------------|     |--------------|
D|--------------|     |--------------|
A|-----2--2--2--|     |--2--2--2--2--|
D|--7\----------| x 1 |--------------| x 3


11:56 / Outro //


G|--------------------|
D|--421---21---21-----|
A|-----32---32---232--|
D|--------------------|
comments
print report bad tab
11 comments total. Showing first comments.
0 reply
gamertag? wrote on May 19 2007, 02:32 am

Thanks man this tab looks awesome. I've only been playing about a month, so this is going to take a while to learn but I gotta aim somewhere right?

0 reply
thunder77 wrote on July 15 2007, 01:54 am

Dang man great job! 5 stars, excellent. Especially with the solo.

0 reply
HikaruX wrote on July 16 2007, 07:38 pm

Thanks guys, it really means alot to have people appreciate the work I did on this. I'm thinking about taking requests for songs, and I might just do all of Amputechture. Who knows, maybe Tetragrammaton tabs are on the way :)

I want to post or [tab]
guest
You may want to rate the tab now too:
select rating
Please do not post tabs as comments. Select "correction" instead!