Oops, an error
Loading. Please wait.

Day Of The Baphomets Tab

version 1
version 1

Whole song

Interactive

9,814 views 3 this week
6 commentsread comments
1 2 3 4 5
accurate
x 5
add to favorites
launch autoscroll
font size
0
reset
how to read this tab
guitar tuner
Tab Pro tools
  • play this tab
  • loop segment
  • change instrument
  • show fretboard
  • metronome
Autoscroll
slow
fast
+/-
esc
set tempo
stop
Contributor
Difficulty
advanced
Artist: TMV
Album: Amputechture
Song: Day of The Baphomets

I'm surprised no one has tried to crack this yet...
I feel that this tab so far is 100% correct, if you have any reason to 

disbelieve this statement, please reply, thank-you.

Intro(Guitar1):(Played during bass solo)
E|-------------------------|
B|-------------------------|
G|-------------------------|
D|-------------------------|
A|--5---5---5---5---5------|
E|-------------------------|

Intro(Guitar1):(Played after the bass solo)
E|----------------------------------|
B|----------------------------------|
G|-0-5-7-0-5-7-0-7-8-0-7-8-0-7-8-10-|
D|----------------------------------|
A|----------------------------------|
E|----------------------------------|

Intro Solo(Sax) Uses the pentatonic D scale
E|---------------------------------------------10-13-15-17-|
B|-------------------------------------10-13-15------------|
G|--------------------------------10-12--------------------|
D|--------------------------10-12--------------------------|
A|------------------8-10-12--------------------------------|
E|-0-3-5-7-8-10-12-----------------------------------------|

Verse(Guitar1):
E|----------------------------------|
B|----------------------------------|
G|-0-5-7-0-5-7-0-7-8-0-7-8-0-7-8-10-|
D|----------------------------------|
A|----------------------------------|
E|----------------------------------|

Verse(Organ):
E|--10---10---10---10---10------|
B|--10---10---10---10---10------|
G|---7----7----7----7----7------|
D|------------------------------|
A|------------------------------|
E|------------------------------|

Pre-Chorus Solo:
E|-10-11-10-13-15--------10-9-------------8----10----8-12-10-----|
B|--------------------10------10-10-----8----9-------------------|
G|---------------------------------------------------------------|
D|---------------------------------------------------------------|
A|---------------------------------------------------------------|
E|---------------------------------------------------------------|

E|-------11---------11-13-15------11---|
B|-11-13---------10-----------14-------|
G|-------------------------------------|
D|-------------------------------------|
A|-------------------------------------|
E|-------------------------------------|

Verse(Guitar1):
E|----------------------------------|
B|----------------------------------|
G|-0-5-7-0-5-7-0-7-8-0-7-8-0-7-8-10-|
D|----------------------------------|
A|----------------------------------|
E|----------------------------------|

Chorus(Guitar2):
E|----10------10--------------------------------------------|
B|-------9-------9---------------9----------9---------------|
G|---------10------10--------------10---------10------------|
D|-12-----------------12------12------12--------12--12------|
A|----------------------------------------------------------|
E|----------------------------------------------------------|

Chorus Fill:
E|10------------11---------------------|
B|-------13--------------11----10------|
G|-------------------------------------|
D|-------------------------------------|
A|-------------------------------------|
E|-------------------------------------|

Then Repeat All of the above from Intro(Sax Solo):
Then it goes into a post chorusy bridge...

Post Chorus(Guitar1):
E|----------------------------------|
B|----------------------------------|
G|-0-5-7-0-5-7-0-7-8-0-7-8-0-7-8-10-|
D|----------------------------------|
A|----------------------------------|
E|----------------------------------|

Post Chorus(Guitar2):
E|----10------10--------------------------------------------|
B|-------9-------9---------------9----------9---------------|
G|---------10------10--------------10---------10------------|
D|-12-----------------12------12------12--------12--12------|
A|----------------------------------------------------------|
E|----------------------------------------------------------|

Post Chorus Fill:
E|------------------------------------------------|
B|---------8---10------13------------10-----------|
G|-7------------------------12------------7-------|
D|------------------------------------------------|
A|------------------------------------------------|
E|------------------------------------------------|

Last 2 Phrases of Guitar 2:                        x2
E||-10------10------10-----10----------------------||
B||----9-------9-------9------9----------9--9------|| 
G||*-----10------10------10-----10----10----------*||
D||*-------------------------------12-------------*||
A||------------------------------------------------||
E||------------------------------------------------||

Interlude:(Silence)
E|-10------10------10---------------------------------------|
B|----9-------9-------9-------------------------------------| 
G|------10------10------10----10-10-12b14---------------r12-|
D|-------------------------12-------------------------------|
A|----------------------------------------------------------|
E|----------------------------------------------------------|

Chorus 2(Guitar1):
E|---------------------------5-6-8-|
B|-----------------------6-8-------|
G|-------7-----5-------------------|
D|---6-----6-7---7-6-5-------------|
A|-5---5---------------8-----------|
E|---------------------------------|

Chorus 2(Organ):
E|-10-10-10-10-10--13-13-13-13-13--12-12-12-12-12--10-10-15-10-9----|
B|-13b15-15-15-15--16b18-18-18-18--15b17-17-17-17--13b15-15-15-12b14|
G|------------------------------------------------------------------|
D|------------------------------------------------------------------|
A|------------------------------------------------------------------|
E|------------------------------------------------------------------|

Post Chorus 2(Guitar1):
E|-------------------------|
B|-------------------------|
G|-------------------------|
D|-------------------------|
A|--5---5---5---5---5------|
E|-------------------------|

Post Chorus 2(Organ):
E|-10--10--10--10--10------|
B|-10--10--10--10--10------|
G|--7---7---7---7---7------|
D|-------------------------|
A|-------------------------|
E|-------------------------|

Slide down on the last note
That brings it up to 4:30 ish... I'll figure out the rest later...

Structure is as follows:
Intro(Bass Solo)
Intro(Sax Solo)
Verse
Chorus
Intro(Sax Solo)
Verse
Chorus
Post Chorus
Interlude
Chorus 2
Post Chorus 2
comments
print report bad tab
6 comments total. Showing first comments.
0 reply
shotgunjoe wrote on February 24 2007, 07:31 am

Good tab.

0 reply
Shadow678 wrote on February 24 2007, 03:32 pm

Thank you sooooo much I've been waiting for someone to do DOB. And Im just way too lazy. lol

0 reply
manstis1804 wrote on March 15 2007, 04:34 pm

I think you've got that main riff wrong, I believe Omar plays it on the open D string. So it would be 0-10-12-0-10-12-0-12-13-0-12-13-0-12-13-15. That way the open string note matches up perfectly with the bassline.

I want to post or [tab]
guest
You may want to rate the tab now too:
select rating
Please do not post tabs as comments. Select "correction" instead!