Oops, an error
Loading. Please wait.

Day Of The Baphomets Tab

version 2
version 2

Whole song

Interactive

850 views 1 this week
2 commentsread comments
1 2 3 4 5
accurate
x 3
add to favorites
launch autoscroll
font size
0
reset
how to read this tab
guitar tuner
Tab Pro tools
  • play this tab
  • loop segment
  • change instrument
  • show fretboard
  • metronome
Autoscroll
slow
fast
+/-
esc
set tempo
stop
Contributor
Difficulty
advanced
Artist: TMV
Album: Amputechture
Song: Day of The Baphomets

Here is Part II to my Day of the Baphomets Tab this carries on where Part I stopped.

Key Change to B

Pitchshift Solo(Guitar1):
E|-7~-------------~/19~----4~-------------~/16~---|
B|------------------------------------------------|
G|------------------------------------------------|
D|------------------------------------------------|
A|------------------------------------------------|
E|------------------------------------------------|
Uses Pitchshifter and an Octave/Harmonic Effect set to +1 octave.

Guitar Solo(Guitar2):This isn't fully accurate, more like a guideline.
E|---------------------------------------------------------------|
B|----------------6-6-6-6-6-6-6-6--------------------------------|
G|-4-4-4-4-4-4-4-4---------------6-6-6-6-6-6-6-6-7-7-7-7-6-6-6-6-|
D|---------------------------------------------------------------|
A|---------------------------------------------------------------|
E|---------------------------------------------------------------|
If you are wondering, the timing of this is improvised; also listen 

very carefully, and you'll hear that it IS there...

E|--------------------------------------------------|
B|-7------------------------------------------------|
G|-9b11------r9b11r9--7-----7-7-7-7-7-7-7-7-7-7-7\--|
D|--------------------------------------------------|
A|--------------------------------------------------|
E|--------------------------------------------------|

E|--------------------------------------6--4----4----------------|
B|-------------------------------------7-------7-7p4p0-4b5--r4p0-|
G|----4--7---6----4-4-4-4-----4-4-4-4-7--------------------------|
D|-4h6----6---6------------6-------6-----------------------------|
A|---------------------------------------------------------------|
E|---------------------------------------------------------------|

Don't particulary feel like working out the sax part...improv.!

E|-7p5h7-7--7p5h7-7--7p5h7-7-5-7p5---7p5-------------5-------------|
B|---------------------------------7----7p5-7---7p5h7-7p5--5h7p5h7-|
G|-----------------------------------------------------------------|
D|-----------------------------------------------------------------|
A|-----------------------------------------------------------------|
E|-----------------------------------------------------------------|

E|--------5------------------------------10h12p10-12b14--|
B|-5h7p5h7-5h7p5h7p5----------------10h12----------------|
G|------------------7~-4--------9h11---------------------|
D|--------------------------9h12-------------------------|
A|-------------------------------------------------------|
E|-------------------------------------------------------|


E|-19b21h19----------------------------------------------|
B|---------19p17p16--16h17p16-16h17p16-------------------|
G|-----------------18-------18--------18p16p15-----------|
D|--------------------------------------------16-15--15--|
A|-------------------------------------------------------|
E|-------------------------------------------------------|
Starts and ends on the right note, i am sure of... the rest is too mangled to tell...


E|---------------------------------2p0-0-0-0-0/18-18-18-18-18-|
B|-7-6-6-6-6-------6--6b7r6-----------------------------------|
G|----------7-4-4-7---------7--7------------------------------|
D|-------------7----------------------------------------------|
A|------------------------------------------------------------|
E|------------------------------------------------------------|

E|------------------------8b10---------r(8)-7---|
B|----------------------------------------------|
G|-9b11---------r(9)-7--------------------------|
D|----------------------------------------------|
A|----------------------------------------------|
E|----------------------------------------------|

Chorus 2(Guitar1):Let the notes ring
E|-----------------------------------------------------|
B|------6---6--------6---6--------6--5h6-------6---5---|
G|-4--4---4-----4--4---4-----4--4---4-----4--4---4-----|
D|-----------------------------------------------------|
A|-----------------------------------------------------|
E|-----------------------------------------------------|

E|-----------------------------------------------------|
B|-----------------------------------------------------|
G|------7---7--------7--6h7-------7---7-------6h7--6h7-|
D|-6--6---6-----6--6---6-----6--6---6-----6--6---6-----|
A|-----------------------------------------------------|
E|-----------------------------------------------------|
Uses a Clean Chorus Effect, this isnt fully accurate, but it kinda fits to what I can hear.

Chorus 2(Keys):
E|-10------------9------7---------------------------------|
B|-----------------------------9------------6------7------|
G|--------------------------------------------------------|
D|--------------------------------------------------------|
A|--------------------------------------------------------|
E|--------------------------------------------------------|

Breakdown(Guitar1):
E|--------------|
B|--------------|
G|-------5-4----|
D|-7-5-4--------|
A|--------------|
E|--------------|

Breakdown(Guitar2):
E|--------------|
B|-------8-7----|
G|-9-7-6--------|
D|--------------|
A|--------------|
E|--------------|

Key Change to E
Middle Section(Guitar1):
E|-----------------------------|
B|-----------------------------|
G|-----------------------------|
D|-----------------------------|
A|-2-2-2-2-2----2-2-2-2-2-2----|
E|-0-0-0-0-0----0-0-0-0-0-0----|

Middle Section(Guitar2):
E|---------------------------------3--|
B|--------------------------5--3h4----|
G|-4h5p4---4p0----------4h5-----------|
D|-------5----5p4p0-------------------|
A|-----------------4p0----------------|
E|------------------------------------|

Middle Section(Guitar3):
E|-------------------------------------------------|
B|-------------------------------------------------|
G|-------------------------------------------------|
D|-------------------------------------------------|
A|-7-----------7-----------5-----------5-----------|
E|-------------------------------------------------|

E|-------------------------------------------------|
B|-------------------------------------------------|
G|-------------------------------------------------|
D|-------------------------------------------------|
A|-3-----------3-----------2-----------2-----------|
E|-------------------------------------------------|

E|-------------------------------------------------|
B|-------------------------------------------------|
G|-------------------------------------------------|
D|-------------------------------------------------|
A|-------------------------------------------------|
E|-5-----------3-----------2-----------2-----3-----|

Middle Section(Sax):
E|-------------------------------------------------|
B|-------------------------------------------------|
G|-------------------------4---5-------4---5-------|
D|-------------------------------------------------|
A|-------------------------------------------------|
E|-------------------------------------------------|

E|-------------------------------------------------|
B|-------------------------------------------------|
G|-5---7-------5---7-------7---9-------7---9-------|
D|-------------------------------------------------|
A|-------------------------------------------------|
E|-------------------------------------------------|

E|-------------------------------------------------|
B|-12-10-------------------------------------------|
G|-------12----14-12-11----11-9-6------------------|
D|------------------------------------10-9-7-------|
A|-------------------------------------------10-9-7|
E|-------------------------------------------------|

Middle Section II(Guitar1):
E|-----------------------------|
B|-----------------------------|
G|-----------------------------|
D|-9-9-9-9-9----9-9-9-9-9-9----|
A|-7-7-7-7-7----7-7-7-7-7-7----|
E|-0-0-0-0-0----0-0-0-0-0-0----|

Middle Section II(Guitar2):
E|-------3-----------3-----------3-----------3-------------|
B|-0h3h4--5----0h3h4--5----0h3h4--5----0h3h4--5p3p0--------|
G|-------------------------------------------------4h5p4p0-|
D|---------------------------------------------------------|
A|---------------------------------------------------------|
E|---------------------------------------------------------|

End of Middle(Guitar1):
E|--------------|
B|--------------|
G|--------------|
D|-9-9-9-9-9----|
A|-7-7-7-7-7----|
E|-0-0-0-0-0----|

End of Middle(Guitar2):
E|-3-2----------|
B|-----3-2------|
G|---------3----|
D|--------------|
A|--------------|
E|--------------|

Bridge(Guitar1):
E||-10p0--0-0-7p0-10p0---0-0-7p0-10p0-7p0-||
B||------5-------------5------------------||
G||*-------------------------------------*||
D||*-------------------------------------*||
A||---------------------------------------||
E||---------------------------------------||

E||-13p0--0-0-10p0-13p0--0-0-10p0-13p0-10p0-||
B||------5--------------5-------------------||
G||*---------------------------------------*||
D||*---------------------------------------*||
A||-----------------------------------------||
E||-----------------------------------------||

Bridge(Organ):
E|----------------------10------12-----------|
B|-12------10---12-------------------11------|
G|-------------------------------------------|
D|-------------------------------------------|
A|-------------------------------------------|
E|-------------------------------------------|

Pitchshift Solo2(Guitar2):
E|-----------------------------------------------------------|
B|-12~------~/24~------~\12~------11~------~/23~------~\11~--|
G|-----------------------------------------------------------|
D|-----------------------------------------------------------|
A|-----------------------------------------------------------|
E|-----------------------------------------------------------|

Breakdown2(Guitar1):
E|-10-8-7-------------------------|
B|-------10-8-7---7---------------|
G|--------------9---9-7-----------|
D|---------------------9-7--------|
A|------------------------9-7-5---|
E|-----------------------------7--|

Guitar2 whacks on a ricochetting delay that goes to the tempo of this.
Vocals goes AAHH!!

That brings it up to 8:45

Part III to come soon...

Enjoy...
comments
We did not receive enough feedback on this tab! Please rate:
print report bad tab
1 2 3 4 5
2 comments total.
0 reply
guitarmanzac wrote on March 2 2007, 08:50 pm

thankyouthankyouthankyouthankyouthankyouthankyou
-guitarmanzac

0 reply
thunder77 wrote on July 14 2007, 08:50 pm

Hey nice tab, I was waiting for a good Baphomets tab for a while. I think you got the bridge part wrong, "Fold the river by the lips" part before the "My hands secrete a monument." I don't think there's any pull-offs because they're simply not loud enough when you you play them at that speed. I don't know, might just be my guitar. I'm not sure if the notes are right because I dont have a guitar handy, but I'm pretty sure it goes something like this:

Accent E-string notes.
|--7-------5---7-------5---7---5----|
|----7-7-7---7---7-7-7---7---7---7--|
|o---------------------------------o|
|o---------------------------------o|
|-----------------------------------|
|-----------------------------------|
Then the same on 10 and 13.

Sounds right when I play it with the song. Great job on the tab though.

I want to post or [tab]
guest
You may want to rate the tab now too:
select rating
Please do not post tabs as comments. Select "correction" instead!